» » »

Ultimate Fakebook, Having Too Much Fun Tabs (ver.1)

Artists:  A B C D E F G H I J K L M N O P Q R S T U V W X Y Z # 

Having Too Much Fun Tabs (ver.1)

Ultimate Fakebook Tabs
Rating:
0/5 (0 votes)
Having Too Much Fun lessons Tabs too difficult? Try these video lessons and learn fast
                Having too much Fun by Ultimate Fakebook

There needs to be more (correct) UFB tabs!


Verse:

A		Fm	 Bm		  D
I know you didn't call, but maybe you wanted to 

A		Fm	        Bm		     D
You probably figured so what, it's late and we can fight another night 

A       D                 A  E		      Fm          Bm          E
 Well I miss you a ton and I doubt you know I still don't like to be away too long 

(palm mute) ------------------------------------------------------------|
    B5            A5               D5        A5              B            Bm
But still, when I call you it just feels all wrong, cuz if I try to talk... 



CHORUS: 
          A	              Fm    Bm                  D
Well, I'm still the one who's gone, still the one who's gone 

Bm             C#m             D
Feels like I'm having too much fun 

        A                   Fm    Bm                  D  
And I'm still the one who's gone, still the one who's gone 

Bm             C#m             D
Feels like I'm having too much fun 



Verse:

I know you didn't call, but maybe the thought scared you 

You figured I'm with someone else now and you don't wanna die tonight 

But I wish you would call me- I'd tell you how I want so much for you to come along 

And I will when I call you - I just feel so lost, cuz if I tell it all... 


CHORUS 

SOLO
   A        Fm      Bm       D     Bm     C#m         D
e|-----------------------------------------------------------------|
B|------------------------------------0----------------------------|
G|-7~-7-7---7p6-2-2-------------------4~---------4-----------------|
D|------------------2--2-2-2/4-4----------2-2-4----4--2-2~---------|
A|---------------------------------2-------------------------------|
E|-----------------------------------------------------------------|
   A            Fm          Bm          D             Bm
e|---------------------------------------------------------------------|
B|---------------------------------------------------------------------|
G|----------------------------------------------------2~2~------2~2~---|
D|------------------------------------------0-2-2-2-4-----(2)h4--------|
A|-/4-2---4-2---4-2---4-2---------------0-0----------------------------|
E|------5-----5-----5-----5-4--2-0--0h2--------------------------------|
       C#m         D
e|----------------------------0-0-0-0-0-0--------------------------|
B|-----2-b3---------------3--/5-5-5-5/7-7--------------------------|
G|-2h4------2-4--4b6b4-2-------------------------------------------|
D|-----------------------------------------------------------------|
A|-----------------------------------------------------------------|
E|-----------------------------------------------------------------|


BRIDGE

Bm             C#m              D        E            Bm          C#m
 I thought I'd find out while I dove but now I know I don't wanna have it all 
       E
if I'm gonna feel so alone yeah


CHORUS

I know you didn't call, but maybe I wanted
            

comments powered by Disqus
↑ Back to top | Ultimate Fakebook Tabs for Having Too Much Fun. Lyrics for acoustic guitar and electric guitar. Tablatures and chords are parodies/interpretations of the original songs. You may use it for private study, scholarship, research or language learning purposes only