» » »

Ultimate Fakebook, Far, Far Away Tabs (ver.1)

Artists:  A B C D E F G H I J K L M N O P Q R S T U V W X Y Z # 

Far, Far Away Tabs (ver.1)

Ultimate Fakebook Tabs
Rating:
0/5 (0 votes)
Far, Far Away lessons Tabs too difficult? Try these video lessons and learn fast
                / - slide up
\ - slide down
x after note - quick stop
x after number - # of times to repeat
b - bend
b(and a # after) - bend to that note
p - pull off
h - hammer on
xx - mute by strumming with fingers on fretboard lightly off
~x - hold out, then stop abruptly
p.m .. - palm mute
.. .. - which note(s) to palm mute


   intro/outro verse 
e|------------10-------------------------------------------------------------|
B|------10-10-------12/14-12--10------------------------10-10----------------|
G|-9999---9-----999-------------999-77-6-4444444----9999--9---9999999--------|
D|---------------------------------------7777777-----------------------------|
A|---------------------------------------------------------------------------|
E|---------------------------------------------------------------------------|

    verse 4x (isn't it funny..) 
(for the part that has 44 after the 466just lift ring finger and only 
     play g and d strings)                           
		1st and 3rd times		    second time and fourth
e|-------------------------------------|----------------------5----5----5----5--------|
B|-------------------------------------|----------------------5----5----5----5--------|
G|-6-6-64--------------------4-44-4-4--|--6-6-64--------------7----7----7----7--------|
D|-6-6-64--7-77-7-7--4-4-44--4-44-4-4--|--6-6-64--7-77-7-7----7----7----7----7--------|
A|-4-4-4---7-77-7-7--4-4-44--2-22-2-2--|--4-4-4---7-77-7-7--5-5--5-5--5-5--5-5--------|
E|---------5-55-5-5--2-2-22------------|----------5-55-5-5----------------------------|

     pre-chorus 
e|---------------------------------------------------------------------------|
B|---------------------------------------------------------------------------|
G|---------7-7-7777---------7-7-7777---------9-99-9-9--7-77777777777777------|
D|-2-2-22--7-7-7777-2-2-22--7-7-7777-2-2-222-9-99-9-9--7-77777777777777------|
A|-2-2-22--5-5-5555-2-2-22--5-5-5555-2-2-222-7-77-7-7--5-55555555555555------|
E|-0-0-00-----------0-0-00-----------0-0-000---------------------------------|

     Chorus  2x
e|---------------------------------------------------------------------------|
B|---------------------------------------------------------------------------|
G|----------11-1111--7-77----------------------------------------------------|
D|-7-7-777--11-1111--7-77----------------------------------------------------|
A|-7-7-777--9--9-9---5-55----------------------------------------------------|
E|-5-5-555-------------------------------------------------------------------|
   
    Chorus pt.2
e|---------------------------------------------------------------------------|
B|---------------------------------------------------------------------------|
G|-4-4-444------------7-777777777777-----------------------------------------|
D|-4-4-444-4-44-4-44--7-777777777777-----------------------------------------|
A|-2-2-222-4-44-4-44--5-555555555555-----------------------------------------|
E|---------2-22-2-22---------------------------------------------------------|

e|-------------10------------------------------------------------------------|
B|-------10-10--------12/14-12--10------------------------10-10--------------|
G|--9999---9-----999--------------999-77-6-4444444---9999---9--99999999------|
D|-----------------------------------------7777777---------------------------|
A|---------------------------------------------------------------------------|
E|---------------------------------------------------------------------------|
    repeat verse 4x
    repeat pre-chorus 
    repeat chorus 2x
    repeat chorus pt.2
    repeat chorus 2x
                       the p.m here THE FIRST time is optional or very light
    
   bridge           (cont. 2x)                             (second ending)
e|----------------|-------------------------------------|--------------------|
B|----------------|-------------------------------------|--------------------|
G|-4-4-444--------|--7-77777-----------6-66666----------|-6-66666------------|
D|-4-4-444-4-4-444|--7-77777--2-22222--6-66666--7-77777-|-6-66666--7/9-2/4---|
A|-2-2-222-4-4-444|--5-55555--2-22222--4-44444--7-77777-|-4-44444--7/9-2/4---|
E|---------2-2-222|-----------0-00000-----------5-55555-|----------5/7-0/2---|
                   p.m .....    .....    .....    .....     .....

    bridge pt.2 
    (lightly)      (normally)
e|--------------|----------------------------------------------|
B|--------------|----------------------------------------------|
G|-6-6xx4-2-2---|-----4~x--------------------------------------|
D|-6-6xx4-2-2---|-4-2-4~x--------------------------------------|
A|-4-4xx2-0-0---|-4-2-2~x--------------------------------------|
E|--------------|-2-0------------------------------------------|

     repeat chorus 2x
     repeat chorus pt.2
     
   intro/outro verse 2nd guitar (actually the only part played right now, but in
		 layering, on the same verse(intro), there is a secong guitar playing this)
   (heavy p.m)              (on last chord do light p.m)
e|---------------------------------------------------------------------------|
B|---------------------------------------------------------------------------|
G|----------------------------44444444---------------------------------------|
D|----------77777777----------77777777---------------------------------------|
A|-44444444-55555555-77777777------------------------------------------------|
E|-22222222----------55555555------------------------------------------------|
p.m........ ........ ........ ........ 

    outro                 (cont.)
e|--------------------|------------10------------------------------------|
B|------10-10---------|-------10-10------12/14-12--10--------------------|
G|-9999---9---99999999|--9999---9----999-------------999-77-6-444444-----|
D|--------------------|---------------------------------------777777-----|
A|--------------------|--------------------------------------------------|
E|--------------------|--------------------------------------------------|
     
     play first part of the outro again
     play the continued part 
     
    outro (cont.2)  (cont.3)3x   	      final part
e|----------------|------------------------|-----------------5~~~-----------------|
B|----------------|------------------------|-55555555555555x-5~~~-----------------|
G|----------------|---------11-1111--7-77--|-66666666666666x-6~~~-----------------|
D|-7x-77x-77x-77x-|-7-7777--11-1111--7-77--|-77777777777777x-7~~~-----------------|
A|-7x-77x-77x-77x-|-7-7777--9--9-9---5-55--|-77777777777777x-7~~~-----------------|
E|-5x-55x-55x-55x-|-5-5555-----------------|-55555555555555x-5~~~-----------------|

Well that's it, not too hard, huh?
            

comments powered by Disqus
↑ Back to top | Ultimate Fakebook Tabs for Far, Far Away. Lyrics for acoustic guitar and electric guitar. Tablatures and chords are parodies/interpretations of the original songs. You may use it for private study, scholarship, research or language learning purposes only