» » »

Ulf Lundell, Sanna Tabs (ver.1)

Artists:  A B C D E F G H I J K L M N O P Q R S T U V W X Y Z # 

Sanna Tabs (ver.1)

Ulf Lundell Tabs
 Rating:
4/5 (4 votes)
Sanna lessons Tabs too difficult? Try these video lessons and learn fast
                (Intro)
This is the Intro of Ulf lundells “Sanna”. Intro and solo is played by Janne Bark.

h= hammer on

E|--5---77--555-------------------------------------------------|
B|--------------8-77-8-77----7-7--5-333-23-20-------------------|
G|--------------------------------------------------------------|
D|----------------------------------------------2-00--0-------0-|
A|---------------------------------------------------2----020---|       
E|--------------------------------------------------------------|

E|---0-2-3-2----1010--99--777--5---5h7-5---5-7-5----------------|
B|-3-----------------------------7--------7-7---7-8-7-8-77------|
G|--------------------------------------------------------------|
D|--------------------------------------------------------------|
A|--------------------------------------------------------------|       
E|--------------------------------------------------------------|
                                
E|------------------------5---7-5-------------------------------|
B|--5h7-5--3-5-3----5-7-8---7-----------------------------------|
G|--------------------------------------------------------------|
D|--------------------------------------------------------------|
A|--------------------------------------------------------------|       
E|--------------------------------------------------------------|

                         Enjoy!
            
Submit corrections

comments powered by Disqus
↑ Back to top | Ulf Lundell Tabs for Sanna. Lyrics for acoustic guitar and electric guitar. Tablatures and chords are parodies/interpretations of the original songs. You may use it for private study, scholarship, research or language learning purposes only