» » »

Hon Gor Mig Galen Chords (ver.1)

Artists:  A B C D E F G H I J K L M N O P Q R S T U V W X Y Z # 

Hon Gor Mig Galen Chords (ver.1)

Ulf Lundell
Rating:
5/5 (1 vote)

Hard to play? Try these video lessons and learn fast.
                Ulf Lundell
Hon gör mig galen


e|----------------------------------------|
B|-12---12---12------10-------------------|
G|----9----9----9-------12-11--1211—11129-|
D|----------------------------------------|
A|----------------------------------------|
E|----------------------------------------|

e|------------------10h12-10h12-10—-10h12-10h12-10--10h12-10|
B|-12---12---12---------------------------------------------|
G|----9----9----9-------------------------------------------|
D|----------------------------------------------------------|
A|----------------------------------------------------------|
E|----------------------------------------------------------|

Spela allt 2 gånger

Intro. | Em C G D | x 4

Vers. | Em C D | D C G | G D C | C Em D | D C G | G C D G | G C D |

Se hur hon kastar med håret där oin går 
Livet vaknar längs hennes väg 
Jag borde se åt ett annat håll 
men mitt hjärta följer varje steg 
Jag är en dåre som aldrig lär 
Jag är en man på drift igen 
Jag har levt utan lust på en bortglömd kust 
Ingens man, ingens vän 

Ref. | G D G | Em C D | D C G | G D C | x 2

Hon gör mig galen 
Jag vill ha henne hos mig i natt 
Hon gör mig galen 
Hon gör mig galen 
Hon kan bli min frihet 
Hon kan ta mig ut härifrån 
Hon gör mig galen 
Hon gör mig galen 

Vers. | Em C D | D C G | G D C | C Em D | D C G | G D G | G C D |

Jag har vandrat längs gränsen länge nog 
En emigrant med sviktande mod 
Bränd av kvinnor och gamla kontrakt 
Med rastlösheten som gift i mitt blod 
Hon går förbi här som en doft av hopp 
som ett tåg på en nattlig station 
som ett rop i en gränd från en förlorad vän 
som en ny religion 

Ref. | G D G | Em C D | D C G | G D C | x 2

Hon gör mig galen… 


Stick. | Am Am | G G | x 3  | Am Am | C C | D D

Förälskelsen och frälsningen 
krossar kupan, krossar glas 
Dagen blir ett rus av lust 
Natten brinner av stjärnextas 
Du stänger dörren men ett nej 
Du aktar dej, du gömmer dej 
När natten kommer är hon ändå där 
Vad kan du göra åt att du är kär? 

Ref. | G D G | Em C D | D C G | G D C | x 3 

Hon gör mig galen…

Outro solo. | G D G | Em C D | D C G | G D G | C D G | G D G |Em C G | D C D | C D G | C G |
            
Hard to play? Try these video lessons and learn fast. | Correct




comments powered by Disqus
↑ Back to top | Tablatures and chords are parodies/interpretations of the original songs. You may use it for private study, scholarship, research or language learning purposes only