>
 >
Live In A Car

Live In A Car Guitar Tabs

Uk Subs - Live In A Car chords, tabs, tablatures, lyrics

Guitar lessons | Add/correct | Request | Top 50 tabs Artists:  A B C D E F G H I J K L M N O P Q R S T U V W X Y Z 0-9

Live In A Car Guitar Tabs – Uk Subs

CD, Sheet music, Poster

Do you like Live In A Car? Share with your friends now
ChordsTabs
Live In A Car By: UK Subs.

    A     G
E|-----------|
B|-----------|
G|-----------|
D|-----------|
A|--7-7-7-5--|
E|--5-5-5-3--| X8

   D
E|---------------------------------|
B|---------------------------------|
G|---------------------------------|
D|-7-7-7-7-7-7-7-7-7-7-7-7-7-7-7-7-|
A|-5-5-5-5-5-5-5-5-5-5-5-5-5-5-5-5-|
E|---------------------------------|
   . . . . . . . . . . . . . . . .

    A     G
E|-----------|
B|-----------|
G|-----------|
D|-----------|
A|--7-7-7-5--|
E|--5-5-5-3--| X2

   E                               D
E|-----------------------------------|
B|-----------------------------------|
G|-----------------------------------|
D|-9-9-9-9-9-9-9-9-9-9-9-9-9-9-9-9-7-|
A|-7-7-7-7-7-7-7-7-7-7-7-7-7-7-7-7-5-|
E|-----------------------------------|
   . . . . . . . . . . . . . . . .

    A     G    A
E|-----------|-----------------|
B|-----------|-----------------|
G|-----------|-----------------|
D|-----------|-----------------|
A|--7-7-7-5--|-7---Pick slide--|
E|--5-5-5-3--|-5---------------|
           X3

Bass under solo is: E A E A E A B

Solo:
E|----------------------<5><5><5>--5--5--5--3--3--3--5--3--0--5--3--0--|
B|---------------------------------5--5--5--3--3--3--5--3--0--5--3--0--|
G|--7b9r--7--5---------------------------------------------------------|
D|---------------------------------------------------------------------|
A|--------------7--7--7------------------------------------------------|
E|---------------------------------------------------------------------|

E|--10r8--5-5-5--8-5-5--8-8-5--8-8-8-5--8-8-8-5-----8-----5--|
B|---------------8-5-5--8-8-5--8-8-8-5--8-8-8-5--8-----8--5--|
G|-----------------------------------------------------------|
D|-----------------------------------------------------------|
A|-----------------------------------------------------------|
E|-----------------------------------------------------------|

Repeat lick X8.  Then.
E|-------5--------5--|
B|--8b9-----------5--|
G|-------------------|
D|-------------------|
A|-------------------|
E|-------------------|
End of solo.

    A     G
E|-----------|
B|-----------|
G|-----------|
D|-----------|
A|--7-7-7-5--|
E|--5-5-5-3--| X8

   D
E|---------------------------------|
B|---------------------------------|
G|---------------------------------|
D|-7-7-7-7-7-7-7-7-7-7-7-7-7-7-7-7-|
A|-5-5-5-5-5-5-5-5-5-5-5-5-5-5-5-5-|
E|---------------------------------|
   . . . . . . . . . . . . . . . .
    A     G
E|-----------|
B|-----------|
G|-----------|
D|-----------|
A|--7-7-7-5--|
E|--5-5-5-3--| X2

   E                               D
E|---------------------------------------------|
B|---------------------------------------------|
G|---------------------------------------9-----|
D|-9-9-9-9-9-9-9-9-9-9-9-9-9-9-9-9-7--7-----7--|
A|-7-7-7-7-7-7-7-7-7-7-7-7-7-7-7-7-5-----------|
E|---------------------------------------------|
   . . . . . . . . . . . . . . . .    .  .  .

    A     G
E|-----------|
B|-----------|
G|-----------|
D|-----------|
A|--7-7-7-5--|
E|--5-5-5-3--| X3

Solo 2:
                  Repeat this lick a couple of times
E|--10r8----8--5-|----5h8p5--|
B|---------------|-8---------|
G|Pickslide------|-----------|
D|---------------|-----------|
A|---------------|-----------|
E|---------------|-----------|

I am sorry i could not tab out the rest of the solo, but it ends the same way as the first:

Repeat lick X8.  Then.
E|-------5--------5--|
B|--8b9-----------5--|
G|-------------------|
D|-------------------|
A|-------------------|
E|-------------------|

End of solo.

    A     G
E|-----------|
B|-----------|
G|-----------|
D|-----------|
A|--7-7-7-5--|
E|--5-5-5-3--| X3

    A
E|-----|
B|-----|
G|--2--|
D|--2--|
A|--0--|
E|-----
|





Comments


Popular Uk Subs tabs & chords
C.I.D Bass Tabs
Rat Race Bass Tabs
Rock N Roll Savage Chords
B1c Tabs
Barbie's Dead Tabs
Emotional Blackmail Tabs
Riot Tabs
Riot 1 Tabs
Shes Not There Tabs
Warhead Tabs


Song lyrics



↑ Back to top | Tablatures and chords are parodies/interpretations of the original songs. You may use it for private study, scholarship, research or language learning purposes only
© 2014 AZChords.com Contact us | Privacy policy | DMCA | Add/correct tabs | Request tabs | Top 50 tabs