» » »

Uk Subs, Limo Life Tabs (ver.1)

Artists:  A B C D E F G H I J K L M N O P Q R S T U V W X Y Z # 

Limo Life Tabs (ver.1)

Uk Subs Tabs
 Rating:
4/5 (4 votes)
Limo Life lessons Tabs too difficult? Try these video lessons and learn fast
1
                U.K. SUBS : Limo Life 


intro
e|---------------------------------------------------------------|
B|---------------------------------------------------------------|
G|-4--4-4-4-4-2--------------------------------------------------|
D|-4--4-4-4-4-2--5--5-5-5-5-4--2--2-2-2-2-2-2-2-2-2-2-2-2-2-2--2-|
A|-2--2-2-2-2-0--5--5-5-5-5-4--2--2-2-2-2-2-2-2-2-2-2-2-2-2-2--2-|
E|---------------3--3-3-3-3-2--0--0-0-0-0-0-0-0-0-0-0-0-0-0-0--0-|

verse 1
e|---------------------------------------------------------------|
B|---------------------------------------------------------bends-|
G|-4--4-4-4-4-2----------------------------------------------3^3-|
D|-4--4-4-4-4-2--5--5-5-5-5-4--2--2-2-2-2-2-2-2-2-2-2-2-2-2^3----|
A|-2--2-2-2-2-0--5--5-5-5-5-4--2--2-2-2-2-2-2-2-2-2-2-2-2--------|
E|---------------3--3-3-3-3-2--0--0-0-0-0-0-0-0-0-0-0-0-0--------|

verse 2
e|---------------------------------------------------------------|
B|--------------x = palm mute------------------------------------|
G|---------------------------------------------------------------|
D|-x--x-x-x-x-x--x--x-x-x-x-x--x--x-x-x-x-x-------x-x-x---x-x-x--|
A|-9--9-9-9-9-7--5--5-5-5-5-4--2--2-2-2-2-2--2-2--2-2-2-2-2-2-2--|
E|-7--7-7-7-7-5--3--3-3-3-3-2--0--0-0-0-0-0--0-0--0-0-0-0-0-0-0--|

solo

e----^------^-^--^----^-----^--------------|
B|-99999-7-55555555--2-3---7-7----46-------|
G|-99999-7-55555555------------------5^^---|
D|-----bends-------------------------------|
A|-----------------------------------------|
E|-----------------------------------------|

e----^------^-^--^-----^-----^-------------|
B|-99999-7-55555555----3---5-5--3--5-------|
G|-99999-7-55555555--2---------------------|
D|-----bends-------------------------------|
A|-----------------------------------------|
E|-----------------------------------------|

e---------^^--------^^-----12-12--7-5------|
B|-13-13-1313-12--10-10--9--------------3b-|
G|-13-13-1313-12--10-10--9------------2----|
D|-----bends-------------------------------|
A|-----------------------------------------|
E|-----------------------------------------|
solo is based on a live version.

Uk Subs - Limo Life Lyrics

I'm sitting here and I wonder why
Could this be true
I'm a dog I am selfish
And did I really do this to you
One day I'll wake up from this dream
And I'll wonder where I am
This God forsaken everybody's taken
It's a nowhere land

All I need is a little bit of action
You can't take five in this limo life
So what's the satisfaction

The rock and roll hall's downtown
They don't know my name
I could be Valentino
To them it's just a game
I stand naked on the street
I scream 'til I'm blue
Nobody sees nobody hears
I'm only passing through

All I need is a little bit of action
But you can't take five in this limo life
So what's the big attraction
Yeah, yeah, yeah

Don't look at me so seriously
What did I say
I am lost then I'm found
Doesn't matter anyway
One day I'm gonna break on through
To the ....??......???
'Til that day comes along
Down the road I go, just looking

All I need is a little bit of action
But you can't take five in this limo life
So what's the big attraction

All I need is a little bit of action
But you can't take five in this limo life
So what's the big attraction

All I need is a little bit of action
But you can't take five in this limo life
So what's the big attraction

All I need is a little bit of action
But you can't take five in this limo life
So what's the big attraction 
            
Submit corrections

comments powered by Disqus
↑ Back to top | Uk Subs Tabs for Limo Life. Lyrics for acoustic guitar and electric guitar. 1 Tablatures and chords are parodies/interpretations of the original songs. You may use it for private study, scholarship, research or language learning purposes only