» » »

Kicks Tabs (ver.1)

Artists:  A B C D E F G H I J K L M N O P Q R S T U V W X Y Z # 

Kicks Tabs (ver.1)

Uk Subs
Rating:
0/5 (0 votes)

Tabs too difficult? Try these video lessons and learn fast.
                Intro
E|-----------------------|
B|-----------------------|
G|--77-------------------|
D|--77--55--8/99--8/99---|4X
A|--55--55--8/99--8/99---|
E|------33--6/77--6/77---|

Verse
E|---------------------------------------|
B|---------------------------------------|
G|--7/99--7/99---------------------------|
D|--7/99--7/99--99--1111--7777--9999-----|4X
A|--5/77--5/77--99--1111--7777--9999-----|
E|--------------77---9-9--5555--7777-----|

Chorus
E|-------------------------------------------------------------------|
B|-------------------------------------------------------------------|
G|--99999-------------------------99999------------------------------|
D|--99999--6/77--6/77--444444444--99999--6/77--6/77--44444--99999----|
A|--77777--6/77--6/77--444444444--77777--6/77--6/77--44444--99999----|
E|---------4/55--4/55--222222222---------4/55--4/55--22222--77777----|

Solo
E|----------------------------|
B|----------------------------|
G|--9-1212-9-12^-9---77---7^--|
D|-----------------9----9-----|2X
A|----------------------------|
E|----------------------------|

Verse
E|---------------------------------------|
B|---------------------------------------|
G|--7/99--7/99---------------------------|
D|--7/99--7/99--99--1111--7777--9999-----|2X
A|--5/77--5/77--99--1111--7777--9999-----|
E|--------------77---9-9--5555--7777-----|

Chorus
E|-------------------------------------------------------------------|
B|-------------------------------------------------------------------|
G|--99999-------------------------99999------------------------------|
D|--99999--6/77--6/77--444444444--99999--6/77--6/77--44444--99999----|
A|--77777--6/77--6/77--444444444--77777--6/77--6/77--44444--99999----|
E|---------4/55--4/55--222222222---------4/55--4/55--22222--77777----|

Bridge
E|-----------------------|
B|-----------------------|
G|--77-------------------|
D|--77--55--8/99--8/99---|4X
A|--55--55--8/99--8/99---|
E|------33--6/77--6/77---|

Solo
E|----------------------------|
B|----------------------------|
G|--9-1212-9-12^-9---77---7^--|
D|-----------------9----9-----|2X
A|----------------------------|
E|----------------------------|

Verse
E|---------------------------------------|
B|---------------------------------------|
G|--7/99--7/99---------------------------|
D|--7/99--7/99--99--1111--7777--9999-----|2X
A|--5/77--5/77--99--1111--7777--9999-----|
E|--------------77---9-9--5555--7777-----|

Chorus
E|-------------------------------------------------------------------|
B|-------------------------------------------------------------------|
G|--99999-------------------------99999------------------------------|
D|--99999--6/77--6/77--444444444--99999--6/77--6/77--44444--99999----|
A|--77777--6/77--6/77--444444444--77777--6/77--6/77--44444--99999----|
E|---------4/55--4/55--222222222---------4/55--4/55--22222--77777----|

End
E|-----------------------|
B|-----------------------|
G|--77-------------------|
D|--77--55--8/99--8/99---|4X
A|--55--55--8/99--8/99---|
E|------33--6/77--6/77---|
            
Tabs too difficult? Try these video lessons and learn fast.


comments powered by Disqus
↑ Back to top | Tablatures and chords are parodies/interpretations of the original songs. You may use it for private study, scholarship, research or language learning purposes only