» » »

Wait Another Day Tabs (ver.1)

Artists:  A B C D E F G H I J K L M N O P Q R S T U V W X Y Z # 

Wait Another Day Tabs (ver.1)

Uh Huh Her
Rating:
0/5 (0 votes)

Tabs too difficult? Try these video lessons and learn fast.
                
This is the acoustic version they did on This Just Out

correction on the tuning-  it's an open G but I have it tuned a half step higher

Open G tuning

Intro
D--------------------------------------------------------------------------|
B--------------------------------------------------------------------------|
G-6-6-6-7-7-7-7-7-6-6-6-7/11-11-11-6-6-6-7-7-7-7-7-6-6-6-7/11-11-11--------|
D-0-0-0-0-0-0-0-0-0-0-0-0-0-0-0-0-0-0-0-0-0-0-0-0-0-0-0-0-0-0-0-0-0--------|
G--------------------------------------------------------------------------|
D--------------------------------------------------------------------------|

D-----------------------------------------------------------------------|
B-----------------------------------------------------------------------|
G-6-6-6-7-7-7-7-7-6-6-6-7-7-7-7-6-6/4-4-4-6-6-4-4-4-4-4-4-4-6-6-7-7-----|
D-0-0-0-0-0-0-0-0-0-0-0-0-0-0-0-0-0-0-0-0-0-0-0-0-0-0-0-0-0-0-0-0-0-----|
G-----------------------------------------------------------------------|
D-----------------------------------------------------------------------|

Verse
I look at the starlight . . . . .
D--------------------------------------------------------------------------|
B--------------------------------------------------------------------------|
G-6-6-6-7-7-7-7-7-7-7-7-7-7-7-7-7------------------------------------------|
D-0-0-0-0-0-0-0-0-0-0-0-0-0-0-0-0------------------------------------------|
G--------------------------------------------------------------------------|
D--------------------------------------------------------------------------|

Repeat that until

I went out of my mind. . . . .

D--------------------------------------------------------------------------|
B--------------------------------------------------------------------------|
G--------------------------------------------------------------------------|
D-0-0-0-0-0-7-7-7-7-7/2-2-2-2-2/5-5-5-5-5----------------------------------|
G-0-0-0-0-0-7-7-7-7-7/2-2-2-2-2/5-5-5-5-5----------------------------------|
D-0-0-0-0-0-7-7-7-7-7/2-2-2-2-2/5-5-5-5-5----------------------------------|

Repeat until the end of the song
            
Tabs too difficult? Try these video lessons and learn fast.




comments powered by Disqus
↑ Back to top | Tablatures and chords are parodies/interpretations of the original songs. You may use it for private study, scholarship, research or language learning purposes only