» » »

Uh Huh Her, Marstorm Tabs (ver.1)

Artists:  A B C D E F G H I J K L M N O P Q R S T U V W X Y Z # 

Marstorm Tabs (ver.1)

Uh Huh Her Tabs
Rating:
0/5 (0 votes)
Hard to play? Try these video lessons and learn fast.
                -------------------------------------------------------------------------------
                                                 MARSTORM-UH HUH HER
-------------------------------------------------------------------------------

Tuning: Standard

Intro
E|-------------------------------------------------|
B|-------------------------------------------------|
G|-------------------------------------------------| 
D|-------------------------------------------------|
A|--9p5---9p5---9p5---9p5---3h7---3h7---3h7---3h7--| 
E|-------------------------------------------------|

E|-------------------------------------------------|
B|-------------------------------------------------|
G|-------------------------------------------------| 
D|-------------------------------------------------|
A|--9p5---9p5---9p5---9p5---3h7---3h7---3~~--------| 
E|-------------------------------------------------|

E|------------------------------------------------------------------------|
B|------------------------------------------------------------------------|
G|--7-7-7-7-7-7-7-7-7-7-7-7-14-14-12-9-9-9-9-9-9-9-9-16-16-16-16-14-14-12-|
D|--x-x-x-x-x-x-x-x-x-x-x-x-xx-xx-xx-x-x-x-x-x-x-x-x-xx-xx-xx-xx-xx-xx-xx-|
A|--5-5-5-5-5-5-5-5-5-5-5-5-12-12-10-7-7-7-7-7-7-7-7-14-14-14-14-12-12-10-|
E|------------------------------------------------------------------------|

E|------------------------------------------------------------------------|
B|------------------------------------------------------------------------|
G|--7-7-7-7-7-7-7-7-7-7-7-7-14-14-12-9-9-9-9-9-9-9-9-9-9-9-9-9-9-9-9------|
D|--x-x-x-x-x-x-x-x-x-x-x-x-xx-xx-xx-x-x-x-x-x-x-x-x-x-x-x-x-x-x-x-9------|
A|--5-5-5-5-5-5-5-5-5-5-5-5-12-12-10-7-7-7-7-7-7-7-7-7-7-7-7-7-7-7-7------|
E|------------------------------------------------------------------------|

Verse

"....I gather nothing's going my way...."

E|--------------------------------------------------------------------|
B|--------------------------------------------------------------------|
G|--------------------------------------------------------------------| 
D|--9-9------------------------------------5-5------------------------|
A|--7-7-[ x 14 up/down palm mute strum]----3-3-[ x 14 "            "]-| x 4
E|--------------------------------------------------------------------|
      .                                      .

Pre-Chorus

E|---------------------10----------|-------------------12-12-------|
B|-12-12-12---------------12-10-8--|--12-12-12---------------------|
G|----------14-14-9-9-9------------|-----------14-14-9-9-9---------| x2 
D|---------------------------------|-------------------------------|
A|---------------------------------|-------------------------------|
E|---------------------------------|-------------------------------|

Verse

"....This flight it kills us in a free fall..."

E|--------------------------------------------------------------------|
B|--------------------------------------------------------------------|
G|--------------------------------------------------------------------| 
D|--9-9------------------------------------5-5------------------------|
A|--7-7-[ x 14 up/down palm mute strum]----3-3-[ x 14 "            "]-| x 4
E|--------------------------------------------------------------------|
      .                                      .

Chorus x 2

E|------------------------------------------------------------------------|
B|------------------------------------------------------------------------|
G|--7-7-7-7-7-7-7-7-7-7-7-7-14-14-12-9-9-9-9-9-9-9-9-16-16-16-16-14-14-12-|
D|--x-x-x-x-x-x-x-x-x-x-x-x-xx-xx-xx-x-x-x-x-x-x-x-x-xx-xx-xx-xx-xx-xx-xx-|
A|--5-5-5-5-5-5-5-5-5-5-5-5-12-12-10-7-7-7-7-7-7-7-7-14-14-14-14-12-12-10-|
E|------------------------------------------------------------------------|

E|------------------------------------------------------------------------|
B|------------------------------------------------------------------------|
G|--7-7-7-7-7-7-7-7-7-7-7-7-14-14-12-9-9-9-9-9-9-9-9-9-9-9-9-9-9-9-9------|
D|--x-x-x-x-x-x-x-x-x-x-x-x-xx-xx-xx-x-x-x-x-x-x-x-x-x-x-x-x-x-x-x-9------|
A|--5-5-5-5-5-5-5-5-5-5-5-5-12-12-10-7-7-7-7-7-7-7-7-7-7-7-7-7-7-7-7------|
E|------------------------------------------------------------------------|

Verse

"....you are so careless with your kingdom..."

E|--------------------------------------------------------------------|
B|--------------------------------------------------------------------|
G|--------------------------------------------------------------------| 
D|--9-9------------------------------------5-5------------------------|
A|--7-7-[ x 14 up/down palm mute strum]----3-3-[ x 14 "            "]-| x 4
E|--------------------------------------------------------------------|
      .                                      .

Chorus x 2

E|------------------------------------------------------------------------|
B|------------------------------------------------------------------------|
G|--7-7-7-7-7-7-7-7-7-7-7-7-14-14-12-9-9-9-9-9-9-9-9-16-16-16-16-14-14-12-|
D|--x-x-x-x-x-x-x-x-x-x-x-x-xx-xx-xx-x-x-x-x-x-x-x-x-xx-xx-xx-xx-xx-xx-xx-|
A|--5-5-5-5-5-5-5-5-5-5-5-5-12-12-10-7-7-7-7-7-7-7-7-14-14-14-14-12-12-10-|
E|------------------------------------------------------------------------|

E|------------------------------------------------------------------------|
B|------------------------------------------------------------------------|
G|--7-7-7-7-7-7-7-7-7-7-7-7-14-14-12-9-9-9-9-9-9-9-9-9-9-9-9-9-9-9-9------|
D|--x-x-x-x-x-x-x-x-x-x-x-x-xx-xx-xx-x-x-x-x-x-x-x-x-x-x-x-x-x-x-x-9------|
A|--5-5-5-5-5-5-5-5-5-5-5-5-12-12-10-7-7-7-7-7-7-7-7-7-7-7-7-7-7-7-7------|
E|------------------------------------------------------------------------|

Bridge

E|-------------------------------------------------|
B|-------------------------------------------------|
G|-------------------------------------------------| 
D|-------------------------------------------------|
A|--9p5---9p5---9p5---9p5---3h7---3h7---3h7---3h7--| x3
E|-------------------------------------------------|

Chorus x 2

E|------------------------------------------------------------------------|
B|------------------------------------------------------------------------|
G|--7-7-7-7-7-7-7-7-7-7-7-7-14-14-12-9-9-9-9-9-9-9-9-16-16-16-16-14-14-12-|
D|--x-x-x-x-x-x-x-x-x-x-x-x-xx-xx-xx-x-x-x-x-x-x-x-x-xx-xx-xx-xx-xx-xx-xx-|
A|--5-5-5-5-5-5-5-5-5-5-5-5-12-12-10-7-7-7-7-7-7-7-7-14-14-14-14-12-12-10-|
E|------------------------------------------------------------------------|

E|------------------------------------------------------------------------|
B|------------------------------------------------------------------------|
G|--7-7-7-7-7-7-7-7-7-7-7-7-14-14-12-9-9-9-9-9-9-9-9-9-9-9-9-9-9-9-9------|
D|--x-x-x-x-x-x-x-x-x-x-x-x-xx-xx-xx-x-x-x-x-x-x-x-x-x-x-x-x-x-x-x-9------|
A|--5-5-5-5-5-5-5-5-5-5-5-5-12-12-10-7-7-7-7-7-7-7-7-7-7-7-7-7-7-7-7------|
E|------------------------------------------------------------------------|

Outro


E|---------------------10----------|-------------------12-12-------|
B|-12-12-12---------------12-10-8--|--12-12-12---------------------|
G|----------14-14-9-9-9------------|-----------14-14-9-9-9---------| x2 
D|---------------------------------|-------------------------------|
A|---------------------------------|-------------------------------|
E|---------------------------------|-------------------------------|



************************************

| /   slide up
| \   slide down
| h   hammer-on
| p   pull-off
| ~   vibrato
| +   harmonic
| x   Mute note
| b   Bend
| pb  Pre-bend
| br  Bend release
| pbr Pre-bend release
| brb Bend release bend

************************************
            

comments powered by Disqus
↑ Back to top | Uh Huh Her Tabs for Marstorm. Lyrics for acoustic guitar and electric guitar. Tablatures and chords are parodies/interpretations of the original songs. You may use it for private study, scholarship, research or language learning purposes only