» » »

Uh Huh Her, Disdain Tabs (ver.1)

Artists:  A B C D E F G H I J K L M N O P Q R S T U V W X Y Z # 

Disdain Tabs (ver.1)

Uh Huh Her Tabs
 Rating:
4/5 (4 votes)
Disdain lessons Tabs too difficult? Try these video lessons and learn fast
                -------------------------------------------------------------------------------
                             SONG NAME - Band Name
-------------------------------------------------------------------------------

Tuning: WHOLE STEP DOWN (D  G  C  F  A  D)




NOTE: (I know Cam's finger placement doesn't match my tab, 
but I assure you, it's the same notes you're playing. 
I believe she just tunes the 6th string a full step but leaves the 
rest normal because she barres her chords. If you wish to play it like this, 
I suggest you do the same and to change the tab to your liking, just move 
the number on the 5th string down two)

Example:
e|---------------------------------------------------------------------------|
B|---------------------------------------------------------------------------|
G|---------------------------------------------------------------------------|
D|---------------------------------------------------------------------------|
A|---6----------------------------------4------------------------------------|
E|---4---------------becomes------------4------------------------------------|

==============================================================

Intro (1x)
Verse (2x)
Chorus (2x)
Verse (2x)
Chorus (2x) 
Bridge (1x)
Outro (4x)

Intro: 
e|---------------------------------------------------------------------------|
B|---------------------------------------------------------------------------|
G|---------------------------------------------------------------------------|
D|---------------------------------------------------------------------------|
A|---8(16x)---(/10)---6(16x)---10(16x)---8(16x)------------------------------|
E|---6(16x)---(/8)----4(16x)----8(16x)---6(16x)------------------------------|

Verse:
e|---------------------------------------------------------------------------|
B|---------------------------------------------------------------------------|
G|---------------------------------------------------------------------------|
D|---------------------------------------------------------------------------|
A|---8(x16)-----6(x16)---10(x16)---8(x16)------------------------------------|
E|---6(x16)-----4(x16)----8(x16)---6(x16)------------------------------------|

Chorus:
e|---------------------------------------------------------------------------|
B|---------------------------------------------------------------------------|
G|---------------------------------------------------------------------------|
D|---------------------------------------------------------------------------|
A|---3(x6)/6(x6)/8(x12)------------------------------------------------------|
E|---1(x6)/4(x6)/6(x12)------------------------------------------------------|

Bridge: Guitar is silent.
e|---------------------------------------------------------------------------|
B|---------------------------------------------------------------------------|
G|---------------------------------------------------------------------------|
D|---------------------------------------------------------------------------|
A|---------------------------------------------------------------------------|
E|---------------------------------------------------------------------------|

Outro:
e|---------------------------------------------------------------------------|
B|---------------------------------------------------------------------------|
G|---------------------------------------------------------------------------|
D|---------------------------------------------------------------------------|
A|---8(x12)--4(x6)--6(x6)--8(x12)--4(x6)--6(x6)--8(x12)--4(x6)--6(x6)--8(x12)|
E|---6(x12)--2(x6)--4(x6)--6(x12)--2(x6)--4(x6)--6(x12)--2(x6)--4(x6)--6(x12)|

e|---------------------------------------------------------------------------|
B|---------------------------------------------------------------------------|
G|---------------------------------------------------------------------------|
D|---------------------------------------------------------------------------|
A|---4---6/8-----------------------------------------------------------------|
E|---2---4/6-----------------------------------------------------------------|

************************************

| /   slide up
| \   slide down
| h   hammer-on
| p   pull-off
| ~   vibrato
| +   harmonic
| x   Mute note
| b   Bend
| pb  Pre-bend
| br  Bend release
| pbr Pre-bend release
| brb Bend release bend

************************************
            
Submit corrections

comments powered by Disqus
↑ Back to top | Uh Huh Her Tabs for Disdain. Lyrics for acoustic guitar and electric guitar. Tablatures and chords are parodies/interpretations of the original songs. You may use it for private study, scholarship, research or language learning purposes only