» » »

Uh Huh Her, Dance With Me Tabs (ver.1)

Artists:  A B C D E F G H I J K L M N O P Q R S T U V W X Y Z # 

Dance With Me Tabs (ver.1)

Uh Huh Her Tabs
Rating:
0/5 (0 votes)
Dance With Me lessons Tabs too difficult? Try these video lessons and learn fast
                Solo:

Intro
E|------9------9------------9-------9-------------9-------9--------------10------10------|
B|---10-----10-----10----10------10------10----10------10------10-----10------10------10-|
G|-9------9------9----10------10------10----12------12------12-----10------10------10----|
D|---------------------------------------------------------------------------------------|
A|---------------------------------------------------------------------------------------|
E|---------------------------------------------------------------------------------------|

After this cute thing:

E|----------------------------------------------|
B|----------------------------------------------|
G|-12-14-14-14-14-14-14-12-12-14-14-15-15-------|
D|----------------------------------------------|
A|----------------------------------------12-12-|
E|----------------------------------------------|

E|----------------------------------------------|
B|----------------------------------------------|
G|-12-14-14-14-14-14-14-12-12-14-14-15-15-------|
D|----------------------------------------------|
A|----------------------------------------------|
E|----------------------------------------------|

Verse
E|------------------------------------------------------------------------|
B|------------------------------------------------------------------------|
G|------------------------------------------------------------------------|
D|-2-2-2-2-2-2-2-2-2-2-2-2-2-2-2-2-3-3-2-2-0-0-0-0-2-3-3-3-3-2-2-0-0-0-0--|
A|------------------------------------------------------------------------|
E|------------------------------------------------------------------------|

After the verse
E|-----------------|
B|-----------------|
G|-12-14~-12-14-15-|
D|-----------------|
A|-----------------|
E|-----------------|

Chorus
E|----------------------------------------------|
B|----------------------------------------------|
G|-12-14-14-14-14-14-14-12-12-14-14-15-15-------|
D|----------------------------------------------|
A|----------------------------------------12-12-|
E|----------------------------------------------|

E|----------------------------------------------|
B|----------------------------------------------|
G|-12-14-14-14-14-14-14-12-12-14-14-15-15-------|
D|----------------------------------------------|
A|----------------------------------------------|
E|----------------------------------------------|

Repeat Intro, Chorus, Intro again and end.


Main guitar:

No main while playing the intro.
After cute thing, play:

E|-----------------------------------------------------------------|
B|-----------------------------------------------------------------|
G|-------------------------------------------------7-7-7-7-7-7-7-7-|
D|-7-7-7-7-7-7-7-6-7-7-7-7-7-7-7-6-7-7-7-7-7-7-7---7-7-7-7-7-7-7-7-|
A|-7-7-7-7-7-7-7-6-7-7-7-7-7-7-7-6-7-7-7-7-7-7-7---5-5-5-5-5-5-5-5-|
E|-5-5-5-5-5-5-5-4-5-5-5-5-5-5-5-4-5-5-5-5-5-5-5-------------------|

Verse:

You can do the same thing:
E|------------------------------------------------------------------------|
B|------------------------------------------------------------------------|
G|------------------------------------------------------------------------|
D|-2-2-2-2-2-2-2-2-2-2-2-2-2-2-2-2-3-3-2-2-0-0-0-0-2-3-3-3-3-2-2-0-0-0-0--|
A|------------------------------------------------------------------------|
E|------------------------------------------------------------------------|

or

E|--------------------------------------------------------------------------------|
B|-10-10-10-10-10-10-10-10-10-10-10-10-10-10-10-10--15-15-15-15-15-15-15-15-15-15-|
G|-9--9--9--9--9--9--9--9--9--9--9--9--9--9--9--9---14-14-14-14-14-14-14-14-14-14-|
D|-7--7--7--7--7--7--7--7--7--7--7--7--7--7--7--7---12-12-12-12-12-12-12-12-12-12-|
A|--------------------------------------------------------------------------------|
E|--------------------------------------------------------------------------------|

-------------------|
15-15-15-15-15-15--|
14-14-14-14-14-14--|
12-12-12-12-12-12--|
-------------------|
-------------------|

Main guitar will always play A and D.

In the end, this will follow the same Intro that Solo plays:
E|-9-9-10-10-12-12-10-10-12-10-|
B|-----------------------------|
G|-----------------------------|
D|-----------------------------|
A|-----------------------------|
E|-----------------------------|


Hope it's a bit good = )
            
Submit corrections

comments powered by Disqus
↑ Back to top | Uh Huh Her Tabs for Dance With Me. Lyrics for acoustic guitar and electric guitar. Tablatures and chords are parodies/interpretations of the original songs. You may use it for private study, scholarship, research or language learning purposes only