» » »

So Damn Cool Tabs (ver.2)

Artists:  A B C D E F G H I J K L M N O P Q R S T U V W X Y Z # 

So Damn Cool Tabs (ver.2)

Ugly Kid Joe
Rating:
5/5 (3 votes)

Hard to play? Try these video lessons and learn fast.
                

--------|-----|-----------|---------------------------------------------------|
--------|-----|-----------|---------------------------------------------------|
--------|-----|-----------|---------------------------------------------------|
-0-0-0-2|0-0-2|0-2-0-2-0-3|---------------------------------------------------|
-0-0-0-2|0-0-2|0-2-0-2-0-3|---------------------------------------------------|
-0-0-0-2|0-0-2|0-2-0-2-0-3|---------------------------------------------------|
 Do this 7 times then

------------------------------------------------------------------------------|
------------------------------------------------------------------------------|
------------------------------------------------------------------------------|
-0-0-0-2----------------------------------------------------------------------|
-0-0-0-2-0-0-2----------------------------------------------------------------|
-0-0-0-2-0-0-2-0-0-2----------------------------------------------------------|
 And thats really it oh and make sure the tuning is d a d g b e
            
Hard to play? Try these video lessons and learn fast. | Correct




comments powered by Disqus
↑ Back to top | Tablatures and chords are parodies/interpretations of the original songs. You may use it for private study, scholarship, research or language learning purposes only