» » »

Ugly Kid Joe, Intro Tabs (ver.1)

Artists:  A B C D E F G H I J K L M N O P Q R S T U V W X Y Z # 

Intro Tabs (ver.1)

Ugly Kid Joe Tabs
Rating:
0/5 (0 votes)
Intro lessons Tabs too difficult? Try these video lessons and learn fast
                

A killer track from an underrated album.
Most of the solo bits are not note-for-note,
but I've put in pattern's that are close.  Just
let it rip and no one will know.

Tune Down to Eb

------------------------------------------------------------------------------|
------------------------------------------------------------------------------|
-------------------------4-3h4-------------7b9r7v-----------------------------|
------------------------------------------------------------------------------|
------------------------------------------------------------------------------|
----0-7-3-0-0-6-2-0-3-0-------------------------------------------------------|


----4h5p4-0---0-4-0-5-0-7-0-4h5p4---------------------------------------------|
------------------------------------------------------------------------------|
------------------------------------------------------------------------------|
------------------------------------------------------------------------------|
------------------------------------------------------------------------------|
------------------------------------------------------------------------------|


----4h5p4-0---0-4-0-5-0-7-0-4h5-----------------------------------------------|
--------------------------------3---------------------------------------------|
------------------------------------------------------------------------------|
------------------------------------------------------------------------------|
------------------------------------------------------------------------------|
------------------------------------------------------------------------------|


------------------------------------------------------------------------------|
------------------------------------------------------------------------------|
----9--------7--------7-9-----9--------7--------7-----------------------------|
----9-7-5----7-7-5----7-9-----9-7-5----7-7-5----7-5-2-------------------------|
----7-7-5----5-7-5----5-7-----7-7-5----5-7-5----5-5-2-------------------------|
--0---5-3------5-3----------0---5-3------5-3------3-0-------------------------|


------------------------------------------------------------------------------|
---15b17r15--12----12---------------------------------------------------------|
----------------14----14p12h14p12h14-12----12---------------------------------|
----------------------------------------14------------------------------------|
------------------------------------------------------------------------------|
------------------------------------------------------------------------------|
  ^50 seconds

---16*19----------------------------------------------------------------------|
----------17-15-17---15b17v-15h17p15------------------------------------------|
-------------------------------------16v--------------------------------------|
------------------------------------------------------------------------------|
------------------------------------------------------------------------------|
------------------------------------------------------------------------------|
  ^58 seconds

------------------------------------------------------------------------------|
------------------------------------------------------------------------------|
--xx-12b14r12-----------------------------------------------------------------|
------------------------------------------------------------------------------|
------------------------------------------------------------------------------|
------------------------------------------------------------------------------|
  ^1:05 minutes

------------------------------------------------------------------------------|
--15b17r15-14b16r14-----------------------------------------------------------|
------------------------------------------------------------------------------|
------------------------------------------------------------------------------|
------------------------------------------------------------------------------|
------------------------------------------------------------------------------|
  ^1:06 minutes (different guitar)

------------------19^--19b21vvv-----------------------------------------------|
--------------19^-------------------------------------------------------------|
----------19^-----------------------------------------------------------------|
------19^---------------------------------------------------------------------|
--19^-------------------------------------------------------------------------|
------------------------------------------------------------------------------|
  ^1:13 minutes

--x-x-x----10-12-12\---10-12----10------------10-12-12\----12----10-----------|
--x-x-x----10-12-12\---10-12----10------------10-12-12\----12----10-----------|
--x-x-x----------------------12----12-11-9--------------12----12--------------|
--x-x-x-----------------------------------------------------------------------|
--x-x-x-----------------------------------------------------------------------|
--x-x-x-----------------------------------------------------------------------|
  ending solo

------------------------12-10-12-12\--------12-----------10-12-12\--12--------|
------------------------12-10-12-12\--------12-----------10-12-12\--12--------|
-12-12-11-11-9-9h11v------------------12-12----11-12-12----------------12-----|
------------------------------------------------------------------------------|
------------------------------------------------------------------------------|
------------------------------------------------------------------------------|


-12----12---------------------------------------------------------------------|
-12----12---------------------------------------------------------------------|
----12----12---3b4vvvv--------------------------------------------------------|
------------------------------------------------------------------------------|
------------------------------------------------------------------------------|
------------------------------------------------------------------------------|


corrections always welcome


h - hammer
p - pull off
b - bend up
r - release bend
/ - slide up
\ - slide down
v - vibrato
* - trill
t - tap
x - mute/rake
^ - harmonic
            
Submit corrections

comments powered by Disqus
↑ Back to top | Ugly Kid Joe Tabs for Intro. Lyrics for acoustic guitar and electric guitar. Tablatures and chords are parodies/interpretations of the original songs. You may use it for private study, scholarship, research or language learning purposes only