>
 >
Goddamn Devil

Goddamn Devil Guitar Tabs

Ugly Kid Joe - Goddamn Devil chords, tabs, tablatures, lyrics

Guitar lessons | Add/correct | Request | Top 50 tabs Artists:  A B C D E F G H I J K L M N O P Q R S T U V W X Y Z 0-9

Goddamn Devil Guitar Tabs – Ugly Kid Joe

CD, Sheet music, Poster

Do you like Goddamn Devil? Share with your friends now
Tabs
  Goddamn devil _ Ugly kid Joe

  accordage en dropped D, avec cappo sur la première case

  intro guitare crunch en "free style"

  son clair (deux fois)

  --------------------------------------------3---------------3-------------|
  -----------3----------------1----------1----1---------0-------------------|
  -------2-----2--------2------2--------- 0----0-----0---0------------------|
  ---------1-----0----0---0-----0----0-------------0------------------------|
  -----0-----------  0-------------0----------------------------------------|
  ---0-------------0----------------0-------------0-------------------------|


  couplet 1

   3 fois
  ----------------------------------------|
  -------3--------1-------1-------0-------|
  -----2---2---2---2---0--0---0---0-------|
  ---0-------0--------0------0------------|
  ----------------------------------------|
  ----------------------------------------|
                                       _______
                                         ¦ crunch ¦
  ----------------------------------------|
  -------3--------1-------1---------------|
  -----2---2---2---2---0--0---0----0------|
  ---0-------0--------0------0-0----0-----|
  -------------------------------0----0---|
  ----------------------------------------|


  couplet 1  bis (toujours en crunch)

  1ère, et 2ème fois

  ---------------------------------------------|
  -------3---------1--------1----------0-------|
  -----2pm 2---2pm 2---0pm 0----0pm--0---------|
  ---0pm-----0pm-----0pm------0pm--------------|
  ---------------------------------------------|
  ---------------------------------------------|

  3ème fois

  ---------------------------------------------|
  -------3---------1--------1------------------|
  -----2pm 2---2pm 2---0pm 0----0----0---------|
  ---0pm-----0pm-----0pm------0 0----0---------|
  -----------------------------------0----0----|
  ---------------------------------------------|

  ---------------------------------------------|
  -------3---------1--------1------------------|
  -----2pm 2---2pm 2---0pm 0----0\-------------|
  ---0pm-----0pm-----0pm------0 0\-------------|
  -----------------------------------0\--------|
  ---------------------------------------------|

  couplet 3

  3 fois


  -------------------------------------------------------|
  -------------------------------------------------------|
  -------------------------------------------------------|
  -0---0pm 0pm-3-2---5---5pm-5-5pm-5---3b1/4-------------|
  -0---0pm-0pm-3-2---5---5pm-5-5pm-5---3b1/4-------------|
  -0---0pm-0pm-3-2---5---5pm-5-5pm-5---3b1/4-------------|


  ----------------------------|
  ----------------------------|
  ----------------------------|
  -0---0pm 0pm-3-2---5--------|
  -0---0pm-0pm-3-2---5--------|
  -0---0pm-0pm-3-2---5--------|


  couplet 1

  ajoutez 2 mesures de la première partie du riff

  couplet 2

  couplet 3, ajoutez 4 mesures de la première partie du riff

  (vous pouvez aussi jouer ce couplet comme ça:)

  -------------------------------------------------------|
  -------------------------------------------------------|
  -------------------------------------------------------|
  -------------------------------------------------------|
  -0---0pm-0pm-3\2---5---5pm-5-5pm-5---2/3---------------|
  -0---0pm-0pm-3\2---5---5pm-5-5pm-5---2/3---------------|


  --------------------------------------------------------|
  --------------------------------------------------------|
  --------------------------------------------------------|
  --------------------------------------------------------|
  -0---0pm-0pm-3\2---5---5pm-5-5pm-5---3b1/4--------------|
  -0---0pm-0pm-3\2---5---5pm-5-5pm-5---3b1/4--------------|

  etc

  bridge (son clair)
  -----------------------------------------------------------------|
  -----------3----------------1-------------3------------1---------|
  -------2-----2--------2------2-------2----2------2----2 ---------|
  ---------1-----0----0---0-----0---- ---1---0---0--0----0---------|
  -----0-----------  0-------------0--0----------0-----------0-----|
  ---0-------------0----------------0-----------0------------------|


  couplet 4 (je conseille les 3ème et 4ème doigt pour jouer les notes en palm mute)

  4 fois
  ---------------------------------------------------------------------|
  ---------------------------------------------------------------------|
  ---------------------------------------------------------------------|
  --------------------------------------------------------3/4-3-3pm----|
  -0-0pm-0pm-0pm-0-0pm-0pm-0-0pm-0-0pm-0pm-1/2-1-1pm-------------------|
  -0-0pm-0pm-0pm-0-0pm-0pm-0-0pm-0-0pm-0pm-----------------------------|

  riff 2 (ou bridge 2), 3 fois

  ----------------------------------------------------------------------|
  ----------------------------------------------------------------------|
  ----------------------------------------------------------------------|
  ----------------------------------------------------------------------|
  -0--- x-3-- -x-5--------5-5pm-5/6-5-----------------------------------|
  -0-- -x-3--- x-5--------5-5pm-5/6-5-----------------------------------|


  ----------------------------------------------------------------------|
  ----------------------------------------------------------------------|
  ----------------------------------------------------------------------|
  ----------------------------------------------------------------------|
  -0--- x-3-- -x-5------------------------------------------------------|
  -0--- x-3-- -x-5------------------------------------------------------|

  --------------------------------------|
  -------3--------1-------1------0------|
  -----2---2---2---2---0--0---0--0------|
  ---0-------0--------0------0----------|
  --------------------------------------|
  --------------------------------------|

                                         ¦ crunch ¦
  ----------------------------------------|
  -------3--------1-------1---------------|
  -----2---2---2---2---0--0---0----0------|
  ---0-------0--------0------0-0----0-----|
  -------------------------------0----0---|
  ----------------------------------------|

  couplet  1 bis

  couplet 3 ajouter 8 mesures (doublez le tempo visuellement)
                                                                          __
  ------------------------------------------------------------------|                        ¦
  ------------------------------------------------------------------|                        ¦
  ------------------------------------------------------------------|                        ¦
  ------------------------------------------------------------------|                        ¦
  -0------0pm--0pm-0pm-3\2---5--------------------------------------|                         ¦
  -0------0pm--0pm-0pm-3\2---5--------------------------------------|                       ¦
                                                                              ¦
                                                                              ¦ __   3 fois
  -------------------------------------------------------------|     ¦
  -------------------------------------------------------------|     ¦
  -------------------------------------------------------------|     ¦
  -------------------------------------------------------------|     ¦
  5pm--5--5pm--5-----3b1/4-------------------------------------|     ¦
  5pm--5--5pm--5-----3b1/4-------------------------------------|     ¦
                                                                        __¦

  ----------------------------------------------------------------|
  ----------------------------------------------------------------|
  ----------------------------------------------------------------|
  ----------------------------------------------------------------|
  -0------0pm--0pm-0pm-3\2---5------------3-------------2---------|
  -0------0pm--0pm-0pm-3\2---5------------3-------------2---------|


  outro: =intro, sans le riff en rubato





Comments


Popular Ugly Kid Joe tabs & chords
Everything About You Bass Tabs
Cats In The Cradle 3 Chords
Would You Like To Be There Chords
Cats In The Cradle Intro Tabs
Everything About You 1 Tabs
Everything About You 4 Tabs
Madman Tabs
Mr. Recordman Tabs
Mr. Recordman 1 Tabs
Candle Song Ukulele


Song lyrics



↑ Back to top | Tablatures and chords are parodies/interpretations of the original songs. You may use it for private study, scholarship, research or language learning purposes only
© 2014 AZChords.com Contact us | Privacy policy | DMCA | Add/correct tabs | Request tabs | Top 50 tabs