>
 >
Goddam Devil

Goddam Devil Guitar Tabs

Ugly Kid Joe - Goddam Devil chords, tabs, tablatures, lyrics

Guitar lessons | Add/correct | Request | Top 50 tabs Artists:  A B C D E F G H I J K L M N O P Q R S T U V W X Y Z 0-9

Goddam Devil Guitar Tabs – Ugly Kid Joe

CD, Sheet music, Poster

Do you like Goddam Devil? Share with your friends now
Tabs
GOD*** DEVIL
                           As recorded by Ugly Kid Joe
                  (From the 1992 Album AMERICA'S LEAST WANTED)

Words and Music by Ugly Kid Joe
Arranged by Ugly Kid Joe

Gtr I (Eb Ab Db Gb Bb Eb) - 'Gtr I'
Gtr II (Eb Ab Db Gb Bb Eb) - 'Gtr II'
Gtr III (Eb Ab Db Gb Bb Eb) - 'Gtr III'
Gtr IV (Eb Ab Db Gb Bb Eb) - 'Untitled'

 Intro
  Q=124
              E5                          Bmadd11/E   Dsus2/A
 4/4
  Gtr II
  W            W                  +W                  W
|----------||------------------|--------------------|-----------------|
|----------||-12---------------|-(12)---------------|-----------------|
|----------||------------------|--------------------|-----------------|
|----------||------------------|--------------------|-----------------|
|----------||------------------|--------------------|-----------------|
|----------||------------------|--------------------|-----------------|
|
| Gtr I
| W            E E E E E E E E     E  E E E E E E E   E E E E E E E E
|----------||----------0-------|----------0---------|---------5-------|
|----------||------0-----0-----|--------0---3-------|-----3-----3---3-|
|----------||----4---4-------4-|------4-------4---4-|-------2-----2---|
|----------||--2-----------2---|---2------------2---|---2-------------|
|----------||------------------|--------------------|-0---------------|
|----------||------------------|--------------------|-----------------|


  A/E            E5                                Bmadd11/E
  W               H.            E     +E     W
|--------------|--------------------------|------------------|
|--------------|-12------------12b14r(12)-|------------------|
|--------------|--------------------------|-14---------------|
|--------------|--------------------------|------------------|
|--------------|--------------------------|------------------|
|--------------|--------------------------|------------------|
|
| E E E E H       E  E E E E E  E      E     E E E E E E E E
|---------5----|-----------0--------------|--------0---------|
|-----2--------|-------0-----0------------|------0---3-------|
|---2---2------|-----4---4-------------4--|----4-------4---4-|
|-2------------|--2-------------2---------|--2-----------2---|
|--------------|--------------------------|------------------|
|--------------|--------------------------|------------------|


  Dsus2/A                    A/E
   H.            E     +E     Q    Q     H
|--------------------------|------------12-----||
|--------------------------|------12---(12)----||
|-14------------14b16r(14)-|-13----------------||
|--------------------------|-------------------||
|--------------------------|-------------------||
|--------------------------|-------------------||
|
|  E  E E E E E  E      E     E E  E E   H
|-----------5--------------|-------------5-----||
|-------3-----3---------3--|-------2-----------||
|---------2------2---------|----2----2---------||
|-----2--------------------|--2----------------||
|--0-----------------------|-------------------||
|--------------------------|-------------------||


   1st & 2nd Verses
    E5
      \1/     \1/     \1/     \1/
      Q      +Q      +Q      +Q
||--(12)----(12)----(12)----(12)----|
||o-(12)----(12)----(12)----(12)----|
||----------------------------------|
||----------------------------------|
||o---------------------------------|
||----------------------------------|
|
|     E   E   E   E   E   E   E   E
||----------------------------------|
||o-----------5---------------3-----|
||--------4-------4-------4-------4-|
||----2---------------2-------------|
||o---------------------------------|
||----------------------------------|


  D5/E            A/E               E5      Bm/E
    \1/     \1/     \1/     \1/
    Q      +Q      +Q      +Q       W
|-(12)----(12)----(12)----(12)----|-----------------|
|-(12)----(12)----(12)----(12)----|-----------------|
|---------------------------------|-----------------|
|---------------------------------|-----------------|
|---------------------------------|-----------------|
|---------------------------------|-----------------|
|
|   E   E   E   E   E   E   E   E   E E E E E E E E
|---------------------------------|-----------------|
|-----------3---------------2-----|-----5-------3---|
|-------2-------2-------2-------2-|---4---4---4---4-|
|---2---------------2-------------|-2-------2-------|
|---------------------------------|-----------------|
|---------------------------------|-----------------|


  D5/E    A/E      E5      Bm/E      D5/E    A/E
  E E E E E E Q    E E E E E E E E   E E E E E E E E
|----------------|-----------------|-----------------|
|-----3-------2--|-----5-------3---|-----3-------2---|
|---2---2---2----|---4---4---4---4-|---2---2---2---2-|
|-2-------2------|-2-------2-------|-2-------2-------|
|----------------|-----------------|-----------------|
|----------------|-----------------|-----------------|


  E5                 D5/E       A/E       E5      Bm/E
  Gtr I                             Gtr III
                                          PM|     PM|
   E E E E E E E E     E  E E E E E Q     E E E E E E E E
|------------------|--------------------|-----------------|
|------5-------3---|--------3-------2---|-----5-------3---|
|----4---4---4---4-|------2---2---2-----|---4---4---4---4-|
|--2-------2-------|---2--------2-------|-2-------2-------|
|------------------|--------------------|-----------------|
|------------------|--------------------|-----------------|
|
| Gtr III
|  W                   H        E Q   E   W
|------------------|--------------------|-----------------|
|------------------|--------------------|-----------------|
|------------------|--------------2-----|-----------------|
|------------------|--------------2---2-|-----------------|
|------------------|--------------0---0-|-----------------|
|------------------|--------------------|-----------------|
|
| Gtr II
|  W                  +W                  W
|-12---------------|-(12)---------------|-----------------|
|------------------|--------------------|-----------------|
|------------------|--------------------|-----------------|
|------------------|--------------------|-----------------|
|------------------|--------------------|-----------------|
|------------------|--------------------|-----------------|


  D5/E    A/E       E5      Bm/E      D5/E      A5
  PM|     PM|       PM|     PM|       PM|     PM
  E E E E E E E E   E E E E E E E E   E E E E E E E E
|-----------------|-----------------|-----------------|
|-----3-------2---|-----5-------3---|-----3-----------|
|---2---2---2---2-|---4---4---4---4-|---2---2---------|
|-2-------2-------|-2-------2-------|-2-------2-2-2-2-|
|-----------------|-----------------|-----------0-0-0-|
|-----------------|-----------------|-----------------|


  PM|     PM|       PM|     PM|       PM|     PM|
  E E E E E E E E   E E E E E E E E   E E E E E E E E
|-----------------|-----------------|-----------------|
|-----5-------3---|-----3-------2---|-----5-------3---|
|---4---4---4---4-|---2---2---2---2-|---4---4---4---4-|
|-2-------2-------|-2-------2-------|-2-------2-------|
|-----------------|-----------------|-----------------|
|-----------------|-----------------|-----------------|


                   Chorus
  D5/E      A5      E5     G5F#5 A5        D5  A5
  PM|     PM           PM|       PM      PM  PM  PM~
  E E E E E Q  E    Q  E E E E E E   +E  E E E E E Q
|----------------||----------------|------------------|
|-----3----------||----------------|------------------|
|---2---2--------||----------------|-------2----------|
|-2-------2-2----||--------------2-|-(2)---0---2------|
|-----------0----||-2------5s4---0-|-(0)-0---0-0------|
|--------------3-||-0--0-0-3s2-3---|-------------0-3--|


  E5     G5F#5 A5        D5  A5
     PM|       PM      PM  PM  PM~
  Q  E E E E E E   +E  E E E E E Q
|----------------|------------------|
|----------------|------------------|
|----------------|-------2----------|
|--------------2-|-(2)---0---2------|
|-2------5s4---0-|-(0)-0---0-0------|
|-0--0-0-3s2-3---|-------------0-3--|


  E5     G5F#5 A5        D5  A5       E5     G5F#5 A5
     PM|       PM      PM  PM  PM~       PM|       PM
  Q  E E E E E E   +E  E E E E E Q    Q  E E E E E E
|----------------|------------------|----------------|
|----------------|------------------|----------------|
|----------------|-------2----------|----------------|
|--------------2-|-(2)---0---2------|--------------2-|
|-2------5s4---0-|-(0)-0---0-0------|-2------5s4---0-|
|-0--0-0-3s2-3---|-------------0-3--|-0--0-0-3s2-3---|


  1.
                   E5      Bm/E      D5/E    A/E
  +E  E Q  H       E E E E E E E E   E E E E E E E E
|---------------||-----------------|-----------------|
|---------------||-----5-------3---|-----3-------2---|
|---------------||---4---4---4---4-|---2---2---2---2-|
|-(2)-----------||-2-------2-------|-2-------2-------|
|-(0)-----------||-----------------|-----------------|
|---------------||-----------------|-----------------|


  E5      Bm/E      D5/E    A
  E E E E E E E E   E E E E S S E Q
|-----------------|---------------------||
|-----5-------3---|-----3---------2----o||
|---4---4---4---4-|---2---2-----2-------||
|-2-------2-------|-2---------2---------||
|-----------------|---------0----------o||
|-----------------|---------------------||


  2.
    D5  A5    A5   E5     G5F#5 A5        D5  A5
            ~         PM|       PM      PM  PM  PM~
  E E E E E E Q    Q  E E E E E E   +E  E E E E E Q
|----------------|----------------|------------------|
|----------------|----------------|------------------|
|---2------------|----------------|-------2----------|
|---0---2-----2--|--------------2-|-(2)---0---2------|
|-0---0-0-----0--|-2------5s4---0-|-(0)-0---0-0------|
|---------0-3----|-0--0-0-3s2-3---|-------------0-3--|


  E5     G5F#5 A5        D5  A5
     PM|       PM      PM  PM  PM~
  Q  E E E E E E   +E  E E E E E Q
|----------------|------------------|
|----------------|------------------|
|----------------|-------2----------|
|--------------2-|-(2)---0---2------|
|-2------5s4---0-|-(0)-0---0-0------|
|-0--0-0-3s2-3---|-------------0-3--|


    D5  A5    A5   E5     G5F#5 A5        D5  A5
            ~         PM|       PM      PM  PM  PM~
  E E E E E E Q    Q  E E E E E E   +E  E E E E E Q
|----------------|----------------|------------------|
|----------------|----------------|------------------|
|---2------------|----------------|-------2----------|
|---0---2-----2--|--------------2-|-(2)---0---2------|
|-0---0-0-----0--|-2------5s4---0-|-(0)-0---0-0------|
|---------0-3----|-0--0-0-3s2-3---|-------------0-3--|


  E5     G5F#5 A5        D5  A5
     PM|       PM      PM  PM  PM~
  Q  E E E E E E   +E  E E E E E Q
|----------------|------------------|
|----------------|------------------|
|----------------|-------2----------|
|--------------2-|-(2)---0---2------|
|-2------5s4---0-|-(0)-0---0-0------|
|-0--0-0-3s2-3---|-------------0-3--|


                   Gtr I
   E  E Q  H       E E E E E E E E   E E E E E E E E   E E E E E E E E
|---------------||---------0-------|-------0---------|---------0-------|
|---------------||-----0-----0-----|-----0---3-------|-----0-----0-----|
|---------------||---4---4-------4-|---4-------4---4-|---4---4-------4-|
|-(2)-----------||-2-----------2---|-2-----------2---|-2-----------2---|
|-(0)-----------||-----------------|-----------------|-----------------|
|---------------||-----------------|-----------------|-----------------|


                    Bridge
                     Faster Q=170
  E5                 F#5                   B5    C5B5    F#5
                     Gtr III
                       PM--|   PM--------|   PM            PM--|   PM|
  E E E E H          E E E E E E E E   E E E E E E E E   E E E E E E E E
|---------0-------||-----------------|-----------------|-----------------|
|-----0-----------||-----------------|-----------------|-----------------|
|---4---4---------||-----------------|-----------------|-----------------|
|-2---------------||-----------------|-----4---4s5s4---|-----------------|
|-----------------||-4-------4-------|-----2-0-2s3s2p0-|-4-------4-----4-|
|-----------------||-2-2-2-2-2-2-2-2-|-2-2-------------|-2-2-2-2-2-2-2-2-|
|
| Gtr III
| H       Q   Q      W                 W                 W
|-----------------||-----------------|-----------------|-----------------|
|-----------------||-----------------|-----------------|-----------------|
|-----------------||-----------------|-----------------|-----------------|
|-----------------||-----------------|-----------------|-----------------|
|-----------------||-----------------|-----------------|-----------------|
|------------14\--||-----------------|-----------------|-----------------|


      B5  B5C5     F#5                   B5    C5B5
  PM|   PM           PM--|   PM|     PM|   PM
  E E E E E Q.     E E E E E E E E   E E E E E E E E
|----------------|-----------------|-----------------|
|----------------|-----------------|-----------------|
|----------------|-----------------|-----------------|
|-----4---4s5----|-----------------|-----4---4s5s4---|
|-----2-0-2s3----|-4-------4-----4-|-----2-0-2s3s2p0-|
|-2-2------------|-2-2-2-2-2-2-2-2-|-2-2-------------|


  F#5                   B5    C5       F#5  A5   B5
    PM--|   PM|     PM|   PM     ~~~      PM   PM
  E E E E E E E E   E E E E E E  Q     Q  E Q  E Q
|-----------------|------------------|--------------|
|-----------------|------------------|--------------|
|-----------------|-------------[2]--|--------------|
|-----------------|-----4---4s5------|------2----4--|
|-4-------4-----4-|-----2-0-2s3------|-4----0--0-2--|
|-2-2-2-2-2-2-2-2-|-2-2--------------|-2--2---------|


       B5    C5B5    F#5  A5   B5        B5    C5
         PM             PM   PM            PM     ~~~
  +Q   E E E E E E   Q  E Q  E Q    +Q   E E E E  Q
|------------------|--------------|-------------------|
|------------------|--------------|-------------------|
|------------------|--------------|--------------[2]--|
|-(4)--4---4s5s4---|------2----4--|-(4)--4---4s5------|
|-(2)--2-0-2s3s2p0-|-4----0--0-2--|-(2)--2-0-2s3------|
|------------------|-2--2---------|-------------------|


  F#5  A5   B5              C5B5    F#5  A5   B5
     PM   PM            PM             PM   PM
  Q  E Q  E Q    +Q   E E E E E E   Q  E Q  E Q
|--------------|------------------|--------------|
|--------------|------------------|--------------|
|--------------|------------------|--------------|
|------2----4--|-(4)--4---4s5s4---|------2----4--|
|-4----0--0-2--|-(2)--2-0-2s3s2p0-|-4----0--0-2--|
|-2--2---------|------------------|-2--2---------|


             Verse 3
           Moderately Q=124
  B5          E5      Bm/E
           Gtr I
  W           E E E E E E E E
|----------||-----------------|
|----------||-----5-------3---|
|----------||---4---4---4---4-|
|-4--------||-2-------2-------|
|-2--------||-----------------|
|----------||-----------------|


  D5/E    A/E       E5      Bm/E      D5/E    A/A5
  E E E E E E E E   E E E E E E E E   E E E E E E Q
|-----------------|-----------------|-----------------|
|-----3-------2---|-----5-------3---|-----3---2---2---|
|---2---2---2---2-|---4---4---4---4-|---2---2-2-2-----|
|-2-------2-------|-2-------2-------|-2-------2-------|
|-----------------|-----------------|-----------------|
|-----------------|-----------------|-----------------|
|
| Gtr III
| W                 W                 H       E Q   E
|-----------------|-----------------|-----------------|
|-----------------|-----------------|-----------------|
|-----------------|-----------------|-----------2-----|
|-----------------|-----------------|-----------2---2-|
|-----------------|-----------------|-----------0---0-|
|-----------------|-----------------|-----------------|


  E5       Bm/E      D5/E         A/E
  Gtr II
                            \1/
   W                  Q    +H.
|-24---------------|-24---(24)-----------|
|------------------|---------------------|
|------------------|---------------------|
|------------------|---------------------|
|------------------|---------------------|
|------------------|---------------------|
|
| Gtr III
|  PM|     PM|        PM|         PM|
|  E E E E E E E E    E E   E   E E E Q
|------------------|---------------------|
|------5-------3---|--------3---------2--|
|----4---4---4---4-|----2-------2---2----|
|--2-------2-------|--2-----------2------|
|------------------|---------------------|
|------------------|---------------------|


  E5         Bm/E      D5/E         A5
   +W                   +W
|-(24)---------------|-(24)--------------||
|--------------------|-------------------||
|--------------------|-------------------||
|--------------------|-------------------||
|--------------------|-------------------||
|--------------------|-------------------||
|
|   PM-|     PM|         PM-|     PM
|   E  E E E E E E E     E  E E E E Q  E
|--------------------|-------------------||
|--------5-------3---|--------3----------||
|------4---4---4---4-|------2---2--------||
|---2--------2-------|---2--------2-2----||
|--------------------|--------------0----||
|--------------------|-----------------3-||


 Guitar Solo
  E5         G5    F#5   A5
  Gtr IV
   ~~~~~
   H          E     E  E  E
|------------------17-20-------|
|-20b22------20b22-------20b22-|
|------------------------------|
|------------------------------|
|------------------------------|
|------------------------------|
|
|        PM|              PM
|  Q     E E  E     E  E  E
|------------------------------|
|------------------------------|
|------------------------------|
|-------------------------2----|
|--2----------5s====4-----0----|
|--0-----0-0--3s====2--3-------|


          D5                     A5
           |---------7---------|  |---------7---------|  |--------7--------|
   +E   E  S  S  S  S    S  S  S  S  S  S  S    S  S  S  S  S  S  S  S  S  S
|------17-17h21p17------17h21p17----17h21p17------17h21p17----17h21-17h21p17--|
|-(20)-------------20------------20------------20----------20-----------------|
|-----------------------------------------------------------------------------|
|-----------------------------------------------------------------------------|
|-----------------------------------------------------------------------------|
|-----------------------------------------------------------------------------|
|
|       PM            PM                     PM          ~~
|  +E   E  E          E           E          E           Q
|-----------------------------------------------------------------------------|
|-----------------------------------------------------------------------------|
|----------2------------------------------------------------------------------|
|--(2)-----0----------------------2-------------------------------------------|
|--(0)--0-------------0-----------0-------------------------------------------|
|--------------------------------------------0-----------3--------------------|


  E5                                          G5          F#5                 A5
   |--------7--------|  |---------7---------|  |---------7---------|  |------6-------|
   S  S  S  S  S  S  S  S  S  S  S    S  S  S  S  S  S  S    S  S  S  S  S  S  S  S  S
|----17h21p17h20p17----17h20p17------17----17----------------------------------------------|
|-20----------------20----------20------20----20-19-20p19p==17h19p17----17-----------------|
|--------------------------------------------------------------------20----20-19-17-19b23==|
|------------------------------------------------------------------------------------------|
|------------------------------------------------------------------------------------------|
|------------------------------------------------------------------------------------------|
|
|                       PM---------|                                           PM
|  Q                    E          E           E          E           E        E
|------------------------------------------------------------------------------------------|
|------------------------------------------------------------------------------------------|
|------------------------------------------------------------------------------------------|
|------------------------------------------------------------------------------2-----------|
|--2-------------------------------------------5s=========4--------------------0-----------|
|--0--------------------0----------0-----------3s=========2-----------3--------------------|


         D5         A5
                     ~~~
   +Q     +E   S  S  E.     S     Q
|--------------------------------------|
|--------------------------------------|
|-(19)r==(19)----17--------------------|
|-------------19----19----(19)\--------|
|--------------------------------------|
|-------------------------------/12\---|
|
|      PM      PM       PM        ~~~~
|  +E  E   E   E     E  E         Q
|--------------------------------------|
|--------------------------------------|
|----------2---------------------------|
|--(2)-----0---------2-----------------|
|--(0)-0-------0-----0-----------------|
|-----------------------0---------3----|


  E5                 G5 F#5       A5
                  ~~~
                            |----6----|
   Q     +T  T S  E  +E.  S S S S S S S
|---------------------------------------|
|---------------------------7h8p7p5---5-|
|-[7]b9r=(7)p5---[5]-(5)--5---------7---|
|--------------7------------------------|
|---------------------------------------|
|---------------------------------------|
|
|         PM-----|                PM
|  Q      E       E   E E   E     E
|---------------------------------------|
|---------------------------------------|
|---------------------------------------|
|---------------------------------2-----|
|--2------------------5s4---------0-----|
|--0------0-------0---3s2---3-----------|


                 D5               A5           E5           G5 F#5   A5
                                   ~~~          ~~~ PM----|      PM----|
   |-3--|                                           |--3--|      |--3--|
   S  S S  E     +S  +E       +S   Q     Q      Q   E E   E  Q   E E   E
|--------------------------------------------|---------------------------|
|---------[7]b8==(7)r(7)b8====(7)r(7)--------|---------------------------|
|--8p=7p5------------------------------------|-[5]-----------------------|
|--------------------------------------------|------7-6---5-[4]----------|
|--------------------------------------------|-------------------7-6---5-|
|---------------------------------------15\--|---------------------------|
|
|          PM               PM        PM ~~~        PM--|            PM
| +E       E      E         E      E  E  Q      Q   E   E    E E E   E
|--------------------------------------------|---------------------------|
|--------------------------------------------|---------------------------|
|-----------------2--------------------------|---------------------------|
|-(2)-------------0----------------2---------|-----------------------2---|
|-(0)------0----------------0------0---------|--2------------5s4-----0---|
|-------------------------------------0--3---|--0---0---0----3s2-3-------|


  A5    D5      A5                  E5               G5    F#5   A5
         \2.5               \3.5       \0.5/         \0.5/ \1/
   Q    +Q      +S   E.    +Q       S  E.     +Q     E     E   E E
|---------------------------------|--------------------------------|
|-------------------<4>---(<4>)---|---<3>----(<3>)-----------------|
|---------------------------------|--------------------------------|
|---------------------------------|------------------------------2-|
|-[3]---(3)-----(3)---------------|------------------5-----4---5---|
|---------------------------------|--------------------------------|
|
|     PM      PM        PM  ~~~~~~             PM--|             PM
|  E  E  E    E  E      E   Q       Q          E   E E     E   E E
|---------------------------------|--------------------------------|
|---------------------------------|--------------------------------|
|--------2------------------------|--------------------------------|
|--2-----0-------2----------------|------------------------------2-|
|--0--0-------0--0----------------|-2----------------5s====4-----0-|
|-----------------------0---3-----|-0----------0---0-3s====2---3---|


           D5        A5
       \1/  \1/  \1/  \1/
  +E  +E   +E   +E   +Q      T  T  T  T  T  T  S
|---------------------------15p14p12----13h15p13--|
|------------------------------------15-----------|
|-------------------------------------------------|
|-(2)-(2)--(2)--(2)--(2)--------------------------|
|-------------------------------------------------|
|-------------------------------------------------|
|
|      PM        PM       PM ~~~
| +E   E    E    E    E   E  Q
|-------------------------------------------------|
|-------------------------------------------------|
|-----------2-------------------------------------|
|-(2)-------0---------2---------------------------|
|-(0)--0---------0----0---------------------------|
|-------------------------0--3--------------------|


  E5                                    G5       F#5               A5
   |------6-------|  |-------6-------|   |------6-------|  |------6-------|
   S  S  S  S  S  S  S  S  S  S  S   S   S  S  S  S  S  S  S  S  S  S  S  S
|-14h17p14----13h16p13s14-14h17p14------15h18p15----14h17p14s15-15h18p15-17h|
|----------16----------------------(16)----------17-------------------------|
|---------------------------------------------------------------------------|
|---------------------------------------------------------------------------|
|---------------------------------------------------------------------------|
|---------------------------------------------------------------------------|
|
|                    PM------|                                      PM
|  Q                 E        E          E        E        E        E
|---------------------------------------------------------------------------|
|---------------------------------------------------------------------------|
|---------------------------------------------------------------------------|
|-------------------------------------------------------------------2-------|
|--2-------------------------------------5s=======4-----------------0-------|
|--0-----------------0--------0----------3s=======2--------3----------------|


                     D5                    A5
   |-------6-------|   |--------6--------|
   S   S  S  S  S  S  +S   S  S   S   S  S  E     +E   Q
|-20p=17h19p17----17-(17)----------------------------------|
|--------------20---------19-20-(20)p19p17-20b25-(20)------|
|----------------------------------------------------------|
|----------------------------------------------------------|
|----------------------------------------------------------|
|-----------------------------------------------------15\--|
|
|            PM                   PM               PM  ~~~
| +E         E         E          E         E      E   Q
|----------------------------------------------------------|
|----------------------------------------------------------|
|----------------------2-----------------------------------|
|-(2)------------------0--------------------2--------------|
|-(0)--------0--------------------0---------0--------------|
|--------------------------------------------------0---3---|


  E5                G5F#5     A5                  D5      A5
                                         ~~~   ~~~     ~~~
                                                                |-3-|
  E  Q      +T  T S E  Q       T  T S    E  S  E    S  Q.     E S S S
|-------------------------------------|-------------------------------|
|-------------------------------------|-------------------------------|
|---[7]b9r==(7)p5---5-[7]b9r==(7)p5---|-[5]---[5]-----[5]-------5h7h8-|
|-----------------7-----------------7-|-----7-------7-----------------|
|-------------------------------------|-------------------------------|
|-x-----------------------------------|-------------------------------|
|
|         PM|                  PM           PM         PM   PM~
| Q       E  E      E  E    E  E        +E  E     E    E  E E Q
|-------------------------------------|-------------------------------|
|-------------------------------------|-------------------------------|
|-------------------------------------|-----------2-------------------|
|------------------------------2------|-(2)-------0-------2-----------|
|-2-----------------5s=4-------0------|-(0)-0----------0--0-----------|
|-0-------0--0------3s=2----3---------|---------------------0-3-------|


  E5                          G5      F#5               A5
  |----6-----| |-----6------| |------6-------|  |------6-------|
  S S S S S  S S  S S S  S  S S  S  S  S  S  S  S  S  S  S  S  S
|-5------------7--------------8----------------10-------------12-|
|---8-7-7h8h10---10-8-8h10h13---12-10-10h12h13----13-10-13-15----|
|----------------------------------------------------------------|
|----------------------------------------------------------------|
|----------------------------------------------------------------|
|----------------------------------------------------------------|
|
|              PM-----|                                  PM
| Q            E      E       E        E        E        E
|----------------------------------------------------------------|
|----------------------------------------------------------------|
|----------------------------------------------------------------|
|--------------------------------------------------------2-------|
|-2---------------------------5s=======4-----------------0-------|
|-0------------0------0-------3s=======2--------3----------------|


                     D5                A5
   |-------6-------|  |------6-------|
   S   S  S  S  S  S  S  S  S  S  S  S  H
|-15p=12h14p12----12h15p12h14p12----12-15b19------|
|--------------15----------------15---------------|
|-------------------------------------------------|
|-------------------------------------------------|
|-------------------------------------------------|
|-------------------------------------------------|
|
|            PM                PM            PM~
| +E         E        E        E        E    E Q
|-------------------------------------------------|
|-------------------------------------------------|
|---------------------2---------------------------|
|-(2)-----------------0-----------------2---------|
|-(0)--------0-----------------0--------0---------|
|--------------------------------------------0-3--|


  E5        G5F#5 A5         D5  A5       E5     G5F#5 A5
   +W                  +H        H        W
|-(15)--------------|-(15)--------------|----------------|
|-------------------|-------------------|----------------|
|-------------------|-------------------|----------------|
|-------------------|-------------------|----------------|
|-------------------|-------------------|----------------|
|-------------------|-------------------|----------------|
|
|       PM|       PM       PM  PM  PM~       PM|       PM
|   Q   E E E E E E    +E  E E E E E Q    Q  E E E E E E
|-------------------|-------------------|----------------|
|-------------------|-------------------|----------------|
|-------------------|--------2----------|----------------|
|-----------------2-|--(2)---0---2------|--------------2-|
|---2-------5s4---0-|--(0)-0---0-0------|-2------5s4---0-|
|---0---0-0-3s2-3---|--------------0-3--|-0--0-0-3s2-3---|


  A5  D5  A5       E5     G5F#5 A5      D5  A5       E5     G5F#5 A5
  Gtr III
    PM  PM  PM~       PM|       PM    PM  PM  PM~       PM|       PM
  E E E E E E Q    Q  E E E E E E   E E E E E E Q    Q  E E E E E E
|----------------|----------------|----------------|----------------|
|----------------|----------------|----------------|----------------|
|-----2----------|----------------|-----2----------|----------------|
|-2---0---2------|--------------2-|-2---0---2------|--------------2-|
|-0-0---0-0------|-2------5s4---0-|-0-0---0-0------|-2------5s4---0-|
|-----------0-3--|-0--0-0-3s2-3---|-----------0-3--|-0--0-0-3s2-3---|


     |----6----| |----6----| |----6----|
  Q  S S S S S S S S S S S S S S S S S S
|----------------------------------------|
|----------------------------------------|
|----4p2p0-------4p2p0-------4p2p0-------|
|-2--------4p2p0-------4p2p0-------4p2p0-|
|-0--------------------------------------|
|----------------------------------------|


  E5        G5F#5 A5      D5  A5
    PM----|           PM|   PM  PM| ~
  E E E S S E E E E   E E E E E S S Q
|-------------------|-------------------|
|-------------------|-------------------|
|-------------------|-----2-------------|
|-----------------2-|-----0---2---------|
|-2---------5s4---0-|-0-0---0-0---------|
|-0-0-0-0-0-3s2-3---|-----------0-0-3---|


  E5        G5F#5 A5      D5  A5         E5        G5F#5 A5      D5  A5
    PM----|           PM|   PM  PM| ~      PM----|           PM|   PM  PM| ~
  E E E S S E E E E   E E E E E S S Q    E E E S S E E E E   E E E E E S S Q
|-------------------|------------------|-------------------|------------------|
|-------------------|------------------|-------------------|------------------|
|-------------------|-----2------------|-------------------|-----2------------|
|-----------------2-|-----0---2--------|-----------------2-|-----0---2--------|
|-2---------5s4---0-|-0-0---0-0--------|-2---------5s4---0-|-0-0---0-0--------|
|-0-0-0-0-0-3s2-3---|-----------0-0-3--|-0-0-0-0-0-3s2-3---|-----------0-0-3--|


                                       Outro
  E5        G5F#5 A5         G5    E5
                                     Gtr IV
    PM----|
  E E E S S E E E E   +E  Q  Q  Q  E     H.       E     +E     W
|-------------------|----------------||---------------------|-------|
|-------------------|----------------||-12-------12b14r(12)-|-------|
|-------------------|----------------||---------------------|-14----|
|-----------------2-|-(2)------------||---------------------|-------|
|-2---------5s4---0-|-(0)----5-----2-||---------------------|-------|
|-0-0-0-0-0-3s2-3---|--------3-----0-||---------------------|-------|


   H.       E     +E     Q   Q   H       H.       E     +E     W
|---------------------|---------12----|---------------------|-------|
|---------------------|-----12--------|-12-------12b14r(12)-|-------|
|-14-------14b16r(14)-|-13------------|---------------------|-14----|
|---------------------|---------------|---------------------|-------|
|---------------------|---------------|---------------------|-------|
|---------------------|---------------|---------------------|-------|


   H.       E     +E     W           H.       E     +E     H.        E   E
|---------------------|-12--------|---------------------|------------------|
|---------------------|-----------|-12-------12b14r(12)-|------------------|
|-14-------14b16r(14)-|-----------|---------------------|-14-------(14)-13-|
|---------------------|-----------|---------------------|------------------|
|---------------------|-----------|---------------------|------------------|
|---------------------|-----------|---------------------|------------------|


                        E/Ab                E5/B
   H.       E     +E     Q    Q     H         W           W
|---------------------|------------12-----|-(12)--------|------*|
|---------------------|------12---(12)----|-(12)--------|------*|
|-14-------14b16r(14)-|-13----------------|-------------|------*|
|---------------------|-------------------|-------------|------*|
|---------------------|-------------------|-------------|------*|
|---------------------|-------------------|-------------|------*|
|
| Gtr I
|  W                     E E  E E   H         W           W
|---------------------|-------------5-----|--(5)--------|------*|
|---------------------|-------2-----------|-------------|------*|
|---------------------|----2----2---------|-------------|------*|
|---------------------|--2----------------|-------------|------*|
|---------------------|-------------------|-------------|------*|
|---------------------|-------------------|-------------|------*|


Duration Legend
---------------
W - whole; H - half; Q - quarter; E - 8th; S - 16th; T - 32nd; X - 64th; a - acciaccatura
+ - note tied to previous; . - note dotted; .. - note double dotted
Uncapitalized letters represent notes that are staccato (1/2 duration)
Irregular groupings are notated above the duration line
Duration letters will always appear directly above the note/fret number it represents the
duration for.  Duration letters with no fret number below them represent rests.  Multi-
bar rests are notated in the form Wxn, where n is the number of bars to rest for.  Low
melody durations appear below the staff

Tablature Legend
----------------
 h   - hammer-on
 p   - pull-off
 b   - bend
 pb  - pre-bend
 r   - bend release (if no number after the r, then release immediately)
 /\  - slide into or out of (from/to "nowhere")
 s   - legato slide
 S   - shift slide
<n>  - natural harmonic
[n]  - artificial harmonic
n(n) - tapped harmonic
 ~   - vibrato
 tr  - trill
 T   - tap
 TP  - trem. picking
 PM  - palm muting
\n/  - tremolo bar dip; n = amount to dip
 \n  - tremolo bar down
 n/  - tremolo bar up
/n\  - tremolo bar inverted dip
 =   - hold bend; also acts as connecting device for hammers/pulls
 <>  - volume swell (louder/softer)
 x   - on rhythm slash represents muted slash
 o   - on rhythm slash represents single note slash

Misc Legend
-----------
 |  - bar
||  - double bar
||o - repeat start
o|| - repeat end
*|  - double bar (ending)
 :  - bar (freetime)
 $  - Segno
 &  - Coda
Tempo markers - <E/E./Q/Q./H/H.> = BPM(8/16=s8/s16), where s8 = swing 8ths, s16 = swing 16ths





Comments


Popular Ugly Kid Joe tabs & chords
Father 1 Bass Tabs
It's A Lie Bass Tabs
Everything About You Chords
Madman Chords
Cats In The Cradle 1 Tabs
Intro Tabs
Madman 1 Tabs
Mr. Recordman 1 Tabs
Panhandlin' Prince Tabs
So Damn Cool Tabs


Song lyrics



↑ Back to top | Tablatures and chords are parodies/interpretations of the original songs. You may use it for private study, scholarship, research or language learning purposes only
© 2014 AZChords.com Contact us | Privacy policy | DMCA | Add/correct tabs | Request tabs | Top 50 tabs