» » »

God Tabs (ver.1)

Artists:  A B C D E F G H I J K L M N O P Q R S T U V W X Y Z # 

God Tabs (ver.1)

Ugly Kid Joe
Rating:
5/5 (1 vote)

Hard to play? Try these video lessons and learn fast.
                                    GOD


(pm=palm mute,r=rest) 
                      
Eb:| -------------------------------- ||
Bb:| -------------------------------- ||
Gb:|*--------------------------------*||
Db:|*---------------------------2----*||
Ab:| 7-p0-----6-p0-----5-p0-----2---- ||
Eb:| -----0-0------0-0------0-0---3b- ||
          p m      p m      p m         

   
  
Eb:-------------------|---------------------|-------------------|
Bb:-------------------|---------------------|-------------------|
Gb:-------------------|---------------------|-------------------|
Db:-2----------5--7---|-2----------5--6--5--|-2----------5--7---|
Ab:-2----------5--7---|-2----------5--6--5--|-2----------5--7---|
Eb:-0-0-3-p0-0-3--5---|-0-0-3-p0-0-3--4--3--|-0-0-3-p0-0-3--5---|
                                                                 

                         
Eb:---------------------|| -------------------- ||---------------------|
Bb:---------------------|| -------------------- ||---------------------|
Gb:---------------------||*--------------------*||---------------------|
Db:-2----------2--------||*2----------5--7-----*||2--------5--6--5-----|
Ab:-2----------2--------|| 2----------5--7----- ||2--------5--6--5-----|
Eb:-0-0-3-p0-0-0--------|| 0-0-3-p0-0-3--5----- ||0-0-3-p0-3--4--3-----|
                                                                        

                                                  
Eb:| ---------------- ||-----------------|---------------------|
Bb:| ---------------- ||-----------------|---------------------|
Gb:|*9-8-7-6---------*||9-8-7-6----------|---------------------|
Db:|*9-8-7-6-7-------*||9-8-7-6-7--------|2----------5--7------|
Ab:| 7-6-5-4-7------- ||7-6-5-4-7--------|2----------5--7------|
Eb:| --------5------- ||--------5--------|0-0-3-p0-0-3--5------|
                                                                

                                                                  

Eb:---------------------|--------------------|-------------------|
Bb:---------------------|--------------------|-------------------|
Gb:---------------------|--------------------|-------------------|
Db:2----------5--6--5---|2----------5--7-----|2----------2-------|
Ab:2----------5--6--5---|2----------5--7-----|2----------2-------|
Eb:0-0-3-p0-0-3--4--3---|0-0-3-p0-0-3--5-----|0-0-3-p0-0-0-------|
                                                                  

                                                                      

Eb:| -------------------- ||---------------------|| --------------- ||
Bb:| -------------------- ||---------------------|| --------------- ||
Gb:|*--------------------*||---------------------||*9-8-7-6--------*||
Db:|*2----------5--7-----*||2----------5--6--5---||*9-8-7-6-7------*||
Ab:| 2----------5--7----- ||2----------5--6--5---|| 7-6-5-4-7------ ||
Eb:| 0-0-3-p0-0-3--5----- ||0-0-3-p0-0-3--4--3---|| --------5------ ||
                                                                      

                          
                  
Eb:| ------------------|| --------------------------- ||-|
Bb:| ------------------|| --------------------------- ||-|
Gb:|*9-8-7-6-----------||*---------------------------*||-|
Db:|*9-8-7-6-7---------||*---------------------------*||-|
Ab:| 7-6-5-4-7---------|| 7-p0-----6-p0-----5-p0----- ||-|
Eb:| --------5---------|| -----0-0------0-0------0-0- ||-|
                               p m      p m      p m      

                                                             

Eb:--------------------|---------------------|| ---------------- ||
Bb:--------------------|---------------------|| ---------------- ||
Gb:--------------------|---------------------||*9-8-7-6---------*||
Db:2----------5--7-----|2----------5--6--5---||*9-8-7-6-7-------*||
Ab:2----------5--7-----|2----------5--6--5---|| 7-6-5-4-7------- ||
Eb:0-0-3-p0-0-3--5-----|0-0-3-p0-0-3--4--3---|| --------5------- ||
                                                                   

                                                                     

Eb:--------------------|----------------------|---------------------|
Bb:--------------------|----------------------|---------------------|
Gb:9-8-7-6-------------|----------------------|---------------------|
Db:9-8-7-6-7--8--7--5--|7--5--2--------5--7---|2--------5--6--5-----|
Ab:7-6-5-4-7--8--7--5--|7--5--2--------5--7---|2--------5--6--5-----|
Eb:--------5--6--5--3--|5--3--0-0-3-p0-3--5---|0-0-3-p0-3--4--3-----|
                                                                     
            
Hard to play? Try these video lessons and learn fast. | Correct




comments powered by Disqus
↑ Back to top | Tablatures and chords are parodies/interpretations of the original songs. You may use it for private study, scholarship, research or language learning purposes only