» » »

Ugly Kid Joe, Every Thing About You Tabs (ver.6)

Artists:  A B C D E F G H I J K L M N O P Q R S T U V W X Y Z # 

Every Thing About You Tabs (ver.6)

Ugly Kid Joe Tabs
 Rating:
4/5 (4 votes)
Every Thing About You lessons Tabs too difficult? Try these video lessons and learn fast
                Band: Ugly Kid Joe.

Tuning: Standard. EADGBe.

I watched it on Kerrang one morning and i just had 2 tab it...!
Here is my version:

h: hammer-on
/: slide
^: bend string
~: wobble string
po: pull off
(): let ring.

Intro:

e-----------------------------------------------2--------5------------------|
B---3------------------3-----------------------3-------------------3--------|
G---2--------2---------2----------------------2--------2-----------2--------|
D---0--------2---------0--------2/5---4-2----0--------2------------0--------|
A------2-----0--0-2-0-----2----0----0-------------2--0------0-2-0-----------|
E---------3------------------3----------------------3-----------------------|

Intro cont'd

e---3-----------------------------------------------------------------------|
B-----3---------------------------------------------------------------------|
G-------2-------------------------------------------------------------------|
D---------------------------------------------------------------------------|
A-----------2-----0(0)------------------------------------------------------|
E--------------3------------------------------------------------------------|

Verse:

U cud use power chordz instead of single notez but i think singular notez sound better. 
uze single notez on the CHORDZ below tho)..


e------------------------------------------------------5------------5-------|
B---------------------------------------------------------------------------|
G-----------7777--------2222----------7777--------222------2----------------|
D-----------7777--------2222----------7777--------222-----------------------|
A---0-2-0---5555---2----0000---0-2-0--5555---2----000-----------------------|
E--------------------3--------------------------3---------------------------|

Repeat all thru verse.

Chorus

e---5-5-5--------------------------------------------------------------------|
B----------------------------------------------------------------------------|
G----------------------------------------------------------------------------|
D-----------333-5------------------------------------------------------------|
A-----------333-5------------------------------------------------------------|
E-----------111-3------------------------------------------------------------|

Back 2 verse.

Pre-verse bit

e-----2h4-5-----------------------------------------------------------------|
B---------------------------------------------------------------------------|
G---------------------------------------------------------------------------|
D---------------------------------------------------------------------------|
A---0-----------------------------------------------------------------------|
E---------------------------------------------------------------------------|

Back 2 verse

back 2 chorus

But on the chorus do the 1st 2 chords 3x over.  If u dont know wat i mean listen and find out.

Bridge:
not sure about this bit. soz.


solo:

e---9999-6-------------|
B----------7-99999-11-9|
G----------------------|
D----------------------|
A----------------------|
E----------------------|x2

Then:
e---9999-6----------4po2-0-2-0--9999-12-9-14-16~16~16~16~16~16~16~16~-------|
B----------7-9^9^9^---------------------------------------------------------|
G---------------------------------------------------------------------------|
D---------------------------------------------------------------------------|
A---------------------------------------------------------------------------|
E---------------------------------------------------------------------------|

Then:

e---5-7-9-7~-9-10-11~|
B--------------------|
G--------------------|
D--------------------|
A--------------------|
E--------------------|

e------------------|
B------------------|
G------3333-----5--|
D--3-5-1111-5-7-5--|
A--3-5-1111-5-7-3--|
E--1-3------3-5----|


Little bit after that:

e---13(13)-16-13-9~|
B------------------|
G------------------|
D------------------|
A------------------|
E------------------|

Fast riff:

e-------------------------|
B-------------------------|
G---7777777777------------|
D---7777777777-77777777777|
A---5555555555-77777777777|
E--------------55555555555|


then this bit after:

e---------------------|
B---------------------|
G---------------------|
D---33333333-555555555|
A---33333333-555555555|
E---11111111-333333333|


Then after eeeeeeeeeevvvvvvvveeeeeeeeerrrrrrrrrryyyyyyyyyttttthhiiiinnnnng aaaaaabooooouuuuuuuut u:

e---------------------------------------------------------------------------|
B---------------------------------------------------------------------------|
G---666-444-----------------------------------------------------------------|
D---666-444-888-777-666~>>>>>>>>>>>>>>>>>>>>>>>>>>>>>>>>>>>>>>>>>6(6)-------|
A---444-222-888-777-666~>>>>>>>>>>>>>>>>>>>>>>>>>>>>>>>>>>>>>>>>>6(6)-------|
E-----------666-555-444~>>>>>>pickscr*pe>>>>>>>>>>>>>>>>>>>>>>>>>4(4)-------|

e---------------------------------------------------------------------------|
B---------------------------------------------------------------------------|
G--777-4-2-6-7--------------------------------------------------------------|
D--777-4-2-6-7--------------------------------------------------------------|
A--555-2-0-4-5--------------------------------------------------------------|
E---------------------------------------------------------------------------|

There u hav it. Took me quite a while 2 find out.
            
Submit corrections

comments powered by Disqus
↑ Back to top | Ugly Kid Joe Tabs for Every Thing About You. Lyrics for acoustic guitar and electric guitar. Tablatures and chords are parodies/interpretations of the original songs. You may use it for private study, scholarship, research or language learning purposes only