» » »

Ugly Kid Joe, Don't Go Tabs (ver.1)

Artists:  A B C D E F G H I J K L M N O P Q R S T U V W X Y Z # 

Don't Go Tabs (ver.1)

Ugly Kid Joe Tabs
 Rating:
4.2/5 (5 votes)
Don't Go lessons Tabs too difficult? Try these video lessons and learn fast
1
                Hey, this is another pimp song!


Tuning: Eb, Ab, Db, Gb, Bb, eb

Heavy Distortion:
e|-----------------------------------------|--------------------------------|
B|-----------------------------------------|--------------------------------|
G|-------------------------------------(x3)|--------------------------------|
D|-/7h9-9-7-9\-x-x-/7h9-9-7-9\-9-8-7-------|-/7h9-9-7-9\-x-x-/7h9-9-7-9-7---|
A|-/7---7-7-7\-x-x-/7---7-7-7\-7-6-5-7-----|-/7---7-7-7\-x-x-/7---7-7-7-9-7-|
E|-----------------------------------5-----|------------------------------5-|

e|--------------------|---------------|-----------------|-------------------|
B|--------------------|---------------|-----------------|-------------------|
G|--------------------|-----------(x8)|-9-8-7-----------|-------------------|
D|-9\---7\------7\-9\-|-7h9-9-7-9-----|-------9-8-7-6---|-7h9-9-7-9-x-x-777-|
A|-7\---5\---7\-5\-7\-|-7---7-7-7-----|---------------7-|-7---7-7-7-x-x-545-|
E|-----------5\-------|---------------|-----------------|-------------------|

e|---------------------------------------------------------------------|----|
B|---------------------------------------------------------------------|----|
G|---------------------------------------------------------------------|----|
D|-7h9-9-7-9-x-x-7------------7h9-9-7-9-x-x-777--7h9-9-7-9-x-x-7-------|----|
A|-7---7-7-7-x-x-5-7-7\5/7\5--7---7-7-7-x-x-545--7---7-7-7-x-x-5-7-8-9-|----|
E|-----------------5-5\3/5\3-------------------------------------5-6-7-|----|

e|----------------|---|---------------|---|----------------------------------|
B|----------------|---|---------------|---|----------------------------------|
G|------------(x4)|-9-|-----------(x4)|-9-|----------------------------------|
D|----------------|-7-|---------------|-7-|-9-9-9999-9-7-7-7777-7------------|
A|-7h9-9-7-9------|---|-7h9-9-7-9-----|---|-7-7-7777-7-5-5-5555-5-7-7-7777---|
E|-7---7-7-7------|---|-7---7-7-7-----|---|-----------------------5-5-5555---|

e|----------------|----------------------------------------------------------|
B|----------------|----------------------------------------------------------|
G|----------------|----------------------------------------------------------|
D|-----***P.M.***-|-7h9-9-7-9-x-x-777--7h9-9-7-9-x-x-7------------7h9-9-7-9--|
A|-7\5-2-2-2222-2-|-7---7-7-7-x-x-545--7---7-7-7-x-x-5-7-7\5/7\5--7---7-7-7--|
E|-5\3-0-0-0000-0-|------------------------------------5-5\3/5\3-------------|

e|--------------------------------|----------------|---|---------------|----|
B|--------------------------------|----------------|---|---------------|----|
G|--------------------------------|.-----------(x4)|-9-|-----------(x4)|-9--|
D|-x-x-777--7h9-9-7-9-x-x-7-------|.---------------|-7-|---------------|-7--|
A|-x-x-545--7---7-7-7-x-x-5-7-8-9-|-7h9-9-7-9------|---|-7h9-9-7-9-----|----|
E|--------------------------5-6-7-|-7---7-7-7------|---|-7---7-7-7-----|----|
                                   |******Repeat this part x2**************|

e|----------------------------------------------------|----------------------|
B|----------------------------------------------------|----------------------|
G|------------------------------------------------(x4)|----------------------|
D|-9-9-9999-9-7-7-7777-7------------------------------|-7h9-xxxxx-7-9-7-9h7--|
A|-7-7-7777-7-5-5-5555-5-7-7-7777-7\5-2-2-2222-2------|-7---xxxxx-7-7-7-7----|
E|-----------------------5-5-5555-5\3-0-0-0000-0------|--------------------7-|
                                                      |*Repeat this part x4|

sorry, i don't know the solo, but it is a freakin' sweet solo.


| /  slide up
| \  slide down
| h  hammer-on
| p  pull-off
| ~  vibrato
| +  harmonic
| x  Mute note
============================================================================
            
Submit corrections

comments powered by Disqus
↑ Back to top | Ugly Kid Joe Tabs for Don't Go. Lyrics for acoustic guitar and electric guitar. 1 Tablatures and chords are parodies/interpretations of the original songs. You may use it for private study, scholarship, research or language learning purposes only