» » »

Devils Paradise Tabs (ver.1)

Artists:  A B C D E F G H I J K L M N O P Q R S T U V W X Y Z # 

Devils Paradise Tabs (ver.1)

Ugly Kid Joe
Rating:
0/5 (0 votes)

Hard to play? Try these video lessons and learn fast.
                DEVIL'S PARADISE-Ugly Kid Joe


Tuning:Drop d

Intro riff:2X
e------------------------------------------------------------------I-----------------------|
B------------------------------------------------------------------I-----------------------|
G------------------------------------------------------------------I-----------------------|
D------------------------------------------------------------------I-----------------------|
A--3h5---------3h5-----------------3h5---------3h5-----------------I-----------------------|
D------0-0-0-0-----0-0-0-0-3-0-5-3-----0-0-0-0-----0-0-0-0-5-0-6-5-I-----------------------|





Intro with drums:
e------------------------------------------------------------------I-----------------------|
B------------------------------------------------------------------I-----------------------|
G------------------------------------------------------------------I-----------------------|
D------------------------------------------------------------------I-----------------------|
A--3h5---------3h5-----------------3h5---------3h5-----------------I-----------------------|
D------0-0-0-0-----0-0-0-0-3-0-5-3-----0-0-0-0-----0-0-0-0-5-0-6-5-I-----------------------|


e------------------------------------------------------------------|I
B------------------------------------------------------------------|I
G------------------------------------------------------------------|I
D------------------------------------------------------------------|I
A--3h5---------3h5-----------------3h5-----------------------------|I
D------0-0-0-0-----0-0-0-0-3-0-5-3-----0-0--0-0-----3-5-3-/6-5-3---|I




Rhythym during lead:2X
e-------------------------------------------------------------------------------------------|
B-------------------------------------------------------------------------------------------|
G-------------------------------------------------------------------------------------------|
D--------------------------3--5--------------------------5--6--------------------------3--5-|
A--3h5---------3h5---------3--5--3h5---------3h5---------5--6--3h5---------3h5---------3--5-|
D------0-0-0-0-----0-0-0-0-3--5------0-0-0-0-----0-0-0-0-5--6------0-0-0-0-----0-0-0-0-3--5-|

e-------------------------------------------------------------------------------------------|
B-------------------------------------------------------------------------------------------|
G-------------------------------------------------------------------------------------------|
D-------------------------------------------------------------------------------------------|
A--3h5--------------------------------------------------------------------------------------|
D------0-0-0-0-0---3-5-3-/6-5-3-------------------------------------------------------------|




Lead with wah:
e------------------------------10---10-15-10-13-10----10------------------------------------|
B------------------------------13b15---------------13----13-10------------------------------|
G--/14----/13----/12----5b7------------------------------------12-13-12-10-12b13------------|
D-------------------------------------------------------------------------------------------|
A-------------------------------------------------------------------------------------------|
D-------------------------------------------------------------------------------------------|

e-------------------------------------------------------------------------------------------|
B-------------------------------------------------------------------------------------------|
G--10-12-10-12b13r12p10-12-10-12-10----------10-12-12b13r12p10------------------------------|
D-----------------------------------------12-------------------12-10-12---------------------|
A-------------------------------------------------------------------------------------------|
D-------------------------------------------------------------------------------------------|




Verse:
e-------------------------------------------------------------------------------------------|
B-------------------------------------------------------------------------------------------|
G-------------------------------------------------------------------------------------------|
D------------------------------------------------------------------------------------5-6----|
A--3-5-----3-5--5-5-----3-5-----3-5--5-5--3-5--3-5-----3-5--5-5-----3-5-----3-5--5-5-5-6----|
D--0-0-----0-0--0-0-----0-0-----0-0--0-0--3-5--0-0-----0-0--0-0-----0-0-----0-0--0-0-5-6----|

e-------------------------------------------------------------------------------------------|
B-------------------------------------------------------------------------------------------|
G-------------------------------------------------------------------------------------------|
D------------------------------------------------------------------------------------6-5----|
A--3-5-----3-5--5-5-----3-5-----3-5--5-5--3-5--3-5-----3-5--5-5-----3-5-----3-5--5-5-6-5----|
D--0-0-----0-0--0-0-----0-0-----0-0--0-0--3-5--0-0-----0-0--0-0-----0-0-----0-0--0-0-6-5----|





Rhythym during lead:
e-------------------------------------------------------------------------------------------|
B-------------------------------------------------------------------------------------------|
G-------------------------------------------------------------------------------------------|
D--------------------------3--5--------------------------5--6--------------------------3--5-|
A--3h5---------3h5---------3--5--3h5---------3h5---------5--6--3h5---------3h5---------3--5-|
D------0-0-0-0-----0-0-0-0-3--5------0-0-0-0-----0-0-0-0-5--6------0-0-0-0-----0-0-0-0-3--5-|

e-------------------------------------------------------------------------------------------|
B-------------------------------------------------------------------------------------------|
G-------------------------------------------------------------------------------------------|
D-------------------------------------------------------------------------------------------|
A--3h5--------------------------------------------------------------------------------------|
D------0-0---0-0---3-5-3-/6-5-3-------------------------------------------------------------|

Lead with wah:
e-------------------------------------------------------------------------------------------|
B-------------------------------------------------------------------------------------------|
G---/14-------/13-------/12-----5b7---------------------------------------------------------|
D-------------------------------------------------------------------------------------------|
A-------------------------------------------------------------------------------------------|
D-------------------------------------------------------------------------------------------|



Verse:
e-------------------------------------------------------------------------------------------|
B-------------------------------------------------------------------------------------------|
G-------------------------------------------------------------------------------------------|
D------------------------------------------------------------------------------------5-6----|
A--3-5-----3-5--5-5-----3-5-----3-5--5-5--3-5--3-5-----3-5--5-5-----3-5-----3-5--5-5-5-6----|
D--0-0-----0-0--0-0-----0-0-----0-0--0-0--3-5--0-0-----0-0--0-0-----0-0-----0-0--0-0-5-6----|

e-------------------------------------------------------------------------------------------|
B-------------------------------------------------------------------------------------------|
G-------------------------------------------------------------------------------------------|
D------------------------------------------------------------------------------------6-5----|
A--3-5-----3-5--5-5-----3-5-----3-5--5-5--3-5--3-5-----3-5--5-5-----3-5-----3-5--5-5-6-5----|
D--0-0-----0-0--0-0-----0-0-----0-0--0-0--3-5--0-0-----0-0--0-0-----0-0-----0-0--0-0-6-5----|





Chorus:2X
e-------------------------------------------------------------------------------------------|
B-------------------------------------------------------------------------------------------|
G-------------------------------------------------------------------------------------------|
D--------------------------3--5--------------------------5--6--------------------------3--5-|
A--3h5---------3h5---------3--5--3h5---------3h5---------5--6--3h5---------3h5---------3--5-|
D------0-0-0-0-----0-0-0-0-3--5------0-0-0-0-----0-0-0-0-5--6------0-0-0-0-----0-0-0-0-3--5-|

e-------------------------------------------------------------------------------------------|
B-------------------------------------------------------------------------------------------|
G-------------------------------------------------------------------------------------------|
D-------------------------------------------------------------------------------------------|
A--3h5--------------------------------------------------------------------------------------|
D------0-0---0-0---3-5-3-/6-5-3-------------------------------------------------------------|




Bridge:                             (pickslide)
e-------------------------------------------------------------------------------------------|
B-------------------------------------------------------------------------------------------|
G-------------------------------------------------------------------------------------------|
D--0--3------6--5-----0--3------6--5-----------0--3------6-5------0--3------6--5------------|
A--0--3------6--5-----0--3------6--5---~~~~~---0--3------6-5------0--3------6--5------------|
D--0--3------6--5-----0--3------6--5---~~~~~---0--3------6-5------0--3------6--5------------|




Intro riff:3X first line 1x second line
e------------------------------------------------------------------I-----------------------|
B------------------------------------------------------------------I-----------------------|
G------------------------------------------------------------------I-----------------------|
D------------------------------------------------------------------I-----------------------|
A--3h5---------3h5-----------------3h5---------3h5-----------------I-----------------------|
D------0-0-0-0-----0-0-0-0-3-0-5-3-----0-0-0-0-----0-0-0-0-5-0-6-5-I-----------------------|

e------------------------------------------------------------------I-----------------------|
B------------------------------------------------------------------I-----------------------|
G------------------------------------------------------------------I-----------------------|
D------------------------------------------------------------------I-----------------------|
A--3h5---------3h5-----------------3h5-----------------------------I-----------------------|
D------0-0-0-0-----0-0-0-0-3-0-5-3-----0-0---0-0-----3-5-3-5/6-5-3-I-----------------------|




chorus:2X
e-------------------------------------------------------------------------------------------|
B-------------------------------------------------------------------------------------------|
G-------------------------------------------------------------------------------------------|
D--------------------------3--5--------------------------5--6--------------------------3--5-|
A--3h5---------3h5---------3--5--3h5---------3h5---------5--6--3h5---------3h5---------3--5-|
D------0-0-0-0-----0-0-0-0-3--5------0-0-0-0-----0-0-0-0-5--6------0-0-0-0-----0-0-0-0-3--5-|

e-------------------------------------------------------------------------------------------|
B-------------------------------------------------------------------------------------------|
G-------------------------------------------------------------------------------------------|
D-------------------------------------------------------------------------------------------|
A--3h5--------------------------------------------------------------------------------------|
D------0-0---0-0---3-5-3-/6-5-3-------------------------------------------------------------|





Outro lead with wah:2X
e-------------------------------------------------------------------------------------------|
B-------------------------------------------------------------------------------------------|
G----/10-----/9------/8------/5b7-----------------------------------------------------------|
D-------------------------------------------------------------------------------------------|
A-------------------------------------------------------------------------------------------|
D-------------------------------------------------------------------------------------------|

Rhythm during lead:
e---------------------------------------------------------------------------------------------|
B---------------------------------------------------------------------------------------------|
G---------------------------------------------------------------------------------------------|
D---------------------------------------------------------------------------------------------|
A----------------------------------------------------------------------------------------3h5--|
D--0--3-0---3-0-6-5-3----0--3-0---3-0-6-5-3-5----0--3-0---3-0-6-5-3---0--3-0---0-3-0-5-6------|

e-------------------------------------------------------------------------------------------|
B-------------------------------------------------------------------------------------------|
G-------------------------------------------------------------------------------------------|
D-------------------------------------------------------------------------------------------|
A-------------------------------------------------------------------------------------------|
D--0--3-0---3-0-6-5-3----0--3-0---3-0-6-5-3-5----0--3-0---3-0-6-5-3---0--3-0----------------|
            
Hard to play? Try these video lessons and learn fast. | Correct




comments powered by Disqus
↑ Back to top | Tablatures and chords are parodies/interpretations of the original songs. You may use it for private study, scholarship, research or language learning purposes only