>
 >
Clover

Clover Guitar Tabs

Ugly Kid Joe - Clover chords, tabs, tablatures, lyrics

Guitar lessons | Add/correct | Request | Top 50 tabs Artists:  A B C D E F G H I J K L M N O P Q R S T U V W X Y Z 0-9

Clover Guitar Tabs – Ugly Kid Joe

CD, Sheet music, Poster

Do you like Clover? Share with your friends now
Tabs

pm=palm  mute
Eb:---------------------------|---------------------------|
Bb:---------------------------|---------------------------|
Gb:--------2--4--5--4--2------|---------------------------|
Db:----2-4-2r-4r-5r-4r-2------|2-4-------------2-4-4----4-|
Ab:----2-4-0--2--3--2--0------|2-4-------------2-4-4-r--4-|
Eb:12-\0-2---------------0-0-0|0-2-2-2-2-2-2-2-0-2-2--2-2-|
                         p m -   p m - - - - -        p m  

            
Eb:-----------------------|-----------------------|--------------------|
Bb:-----------------------|-----------------------|--------------------|
Gb:----2--4--5--4--2------|-----------------------|----2--4--5--4--2---|
Db:2-4-2r-4r-5r-4r-2------|2-4-------4-------4--4-|2-4-2r-4r-5r-4r-2---|
Ab:2-4-0--2--3--2--0------|2-4-------4-------4r-4-|2-4-0--2--3--2--0---|
Eb:0-2---------------0-0-0|0-2-2-2-2-2-2-2-2-2--2-|0-2-----------------|
                     p m -   p m - -   - - -    

                                                                

Eb:-----------------|-----------------------|------------------|
Bb:-----------------|-----------------------|------------------|
Gb:-----------------|----2--4--5--4--2------|------------------|
Db:2-4--------------|2-4-2r-4r-5r-4r-2------|2-4----------2-4/-|
Ab:2-4-r------------|2-4-0--2--3--2--0------|2-4-r--------2-4/-|
Eb:0-2--------------|0-2---------------0-0-0|0-2----------0-2/-|
                                         p m -                    

                               
                          
Eb:---------------------|-------------------|-----------------------|
Bb:---------------------|-------------------|-----------------------|
Gb:----2--4--5--4--2----|-------------------|----2--4--5--4--2------|
Db:2-4-2r-4r-5r-4r-2----|2-4----------------|2-4-2r-4r-5r-4r-2------|
Ab:2-4-0--2--3--2--0----|2-4r---------------|2-4-0--2--3--2--0------|
Eb:0-2------------------|0-2------------15/-|0-2---------------0-0-0|
                                                               p m - 

                                       
Eb:-----------------------------|----------------|
Bb:-----------------------------|----------------|
Gb:-----------------------------|-------4--------|
Db:--------------------------2--|-------4--------|
Ab:--------------------------2--|-------2--------|
Eb:2-2-2-2-2-2-2-2-2-2-2-2-2-0--|----------------|
   - - - - p h - - - - -                          

                                                
Eb:------------------------------|----------------|---------------------|
Bb:------------------------------|----------------|---------------------|
Gb:------------------------------|-------4--------|----2--4--5--4--2----|
Db:----------------------------2-|-------4--------|2-4-2r-4r-5r-4r-2----|
Ab:------0---------------------2-|-------2--------|2-4-0--2--3--2--0----|
Eb:0-1-2---2-0-2-2-0-2-2-2-0-0-0-|----------------|0-2------------------|
   . . . . . . . . . . . . p m                                           

                                       
Eb:----------------|----------------|-----------------------------|
Bb:----------------|----------------|-----------------------------|
Gb:----------------|----------------|-----------------------------|
Db:----------------|----------------|-----------------------------|
Ab:----------------|----------------|----------------0-0-0-0------|
Eb:----------------|----------------|0-0-0-0-2-2-2-2---------0-0--|
                                     p m - - - - - - - - - - - -   

                  
Eb:| ---------------- 3|| ------------------|
Bb:| ---------------- ||| ------------------|
Gb:|*---------2------*|||*---------5--4-----|
Db:|*2-4--2-4-2------*|||*2-4--2-4-5--4-----|
Ab:| 2-4r-2-4-0------ ||| 2-4r-2-4-3--2-----|
Eb:| 0-2--0-2-------- ||| 0-2--0-2----------|
                                             





Comments


Popular Ugly Kid Joe tabs & chords
Cats In The Cradle Bass Tabs
Shine 1 Bass Tabs
Another Beer Chords
Cloudy Skies Chords
Would You Like To Be There Chords
Cats In The Cradle Drum Tabs
Don't Go Tabs
Every Thing About You 1 Tabs
Everything About You 1 Tabs
Madman 1 Tabs


Song lyrics



↑ Back to top | Tablatures and chords are parodies/interpretations of the original songs. You may use it for private study, scholarship, research or language learning purposes only
© 2014 AZChords.com Contact us | Privacy policy | DMCA | Add/correct tabs | Request tabs | Top 50 tabs