» » »

Ugly Kid Joe, Cat In The Cradle Bass tabs (ver.1)

Artists:  A B C D E F G H I J K L M N O P Q R S T U V W X Y Z # 

Cat In The Cradle Bass tabs (ver.1)

Ugly Kid Joe Tabs
Rating:
3/5 (2 votes)
Cat In The Cradle lessons Tabs too difficult? Try these video lessons and learn fast
                

Intro
G-----------------------------------------------
D------------------------------------------5----
A----5h7--5h7-------7-5-----------------5-----7-
E-0-------------0-------7-6-5--3-0--------------

First Verse No Bass

Pre-chorus
"He was talking 'fore I knew it..."
G----------------------------------
D----------------------------------
A--5--4--2--0----------------------
E--------------3--2--0-------3-2-0-

Chorus
G--------------------------------------------
D--------------------------------------------
A------------5-5-5-5-------------------------
E-0-0-0-0-0-----------3-3-3-3-3---5-5-5-5-5--

G-----------------------------------
D-----------------------------------
A-----------5-5-5-5-----------------
E-0-0-0-0-0-----------3-2-0---3-2-0-

Verse II
G--------------------
D--------------------
A--------------------
E-0-0--3-3--5-5--0-0-

Brigde
G----5--7--4-----5--7--4----
D-2--5--7--4--2--5--7--4--2-
A-2--3--5--2--2--3--5--2--2-
E-0-----------0-----------0-

Acoustic
G------------
D------------
A---5H7--5H7-
E-0----------

You got the parts, now turn your brain on and put the pieces together!
Good luck
            
Submit corrections

comments powered by Disqus
↑ Back to top | Ugly Kid Joe Bass for Cat In The Cradle. Lyrics for acoustic guitar and electric guitar. Tablatures and chords are parodies/interpretations of the original songs. You may use it for private study, scholarship, research or language learning purposes only