>
 >
Wave Goodbye

Wave Goodbye Guitar Tabs

Ugly Casanova - Wave Goodbye chords, tabs, tablatures, lyrics

Guitar lessons | Add/correct | Request | Top 50 tabs Artists:  A B C D E F G H I J K L M N O P Q R S T U V W X Y Z 0-9

Wave Goodbye Guitar Tabs – Ugly Casanova

CD, Sheet music, Poster

Do you like Wave Goodbye? Share with your friends now
Tabs


Tuning: EADgbe


| /  slide up
| \  slide down
| h  hammer-on
| p  pull-off
| ~  vibrato
| +  harmonic
| x  Mute note






this first rhythm guitar is played at the beginning until it changes to

e|--------------------------------------------------|
B|--------------------------------------------------|
G|---------------------5---5--------5---5-----------|
D|--7---5------------7---7---7----7---7---7---------|
A|--7---5---5/7---5-------------5-------------------|
E|--5---3-------------------------------------------|


this and is played until the end

e|-----------------------------------------------|
B|--------------------3---3--------3---3---------|
G|------------------5---5---5----5---5---5-------|
D|--7---5----------------------------------------|
A|--7---5---5/7---5------------5-----------------|
E|--5---3----------------------------------------|




Banjo


e|-------------------------------------------------|
B|-------------------------------------------------|
G|--12-10-9-10-9---------------9--------9----------|
D|---------------12-10---10-12---12--10---10-------|
A|-------------------------------------------12----|
E|-------------------------------------------------|



e|-----------------------------------------------|
B|-----------------------------------------------|
G|--12-10-9-10-9----------------------------12---|
D|----------------12-10---10-12-10--12-10--------|
A|----------------------------------------12-----|
E|-----------------------------------------------|



e|----------------------------------------------|
B|----------------------------------------------|
G|--12-10-9-10-9-------------9-------9----------|
D|----------------12-10--12----12-10---12-------|
A|----------------------------------------12----|
E|----------------------------------------------|



e|-----------------------|
B|-----------------------|
G|--12-10-9-10-9---------|
D|----------------12-10--|
A|-----------------------|
E|-----------------------|



e|--------------------------------------------------|
B|--------------------------------------------------|
G|--------------------------10-9--------------------|
D|--12-10-10----10-12-10---------12-10-12-10--------|
A|-----------12----------12------------------12-----|
E|--------------------------------------------------|



e|--------------------------------------------------|
B|--------------------------------------------------|
G|-----------------10-9--10-9-10-9------------------|
D|--10-10----10-12-----------------10-12-10---------|
A|--------12--------------------------------12------|
E|--------------------------------------------------|



e|----------------------------------------------------|
B|----------------------------------------------------|
G|--12-10-9-10-9--------------10-9--------------------|
D|---------------12-10--10-12------10-12-12-10--------|
A|---------------------------------------------12-----|
E|----------------------------------------------------|



e|-----------------------------------------------------|
B|-----------------------------------------------------|
G|--12-10-9-10-9---------------9----------9------------|
D|----------------12-10--10-12---10-10-12---10---------|
A|---------------------------------------------12------|
E|-----------------------------------------------------|





Comments


Popular Ugly Casanova tabs & chords
Cat Faces 1 Chords
Baby's Clean Conscience Tabs
Barnacles Tabs
Barnacles 2 Tabs
Cat Faces Tabs
Diamonds On The Face Of Evil Tabs
Digging Holes In Water Tabs
Hotcha Girls Tabs
Parasites Tabs
Cat Faces Ukulele


Song lyrics



↑ Back to top | Tablatures and chords are parodies/interpretations of the original songs. You may use it for private study, scholarship, research or language learning purposes only
© 2014 AZChords.com Contact us | Privacy policy | DMCA | Add/correct tabs | Request tabs | Top 50 tabs