>
 >
 >
Too Young To Know

Too Young To Know Guitar Tabs

Ufo - Too Young To Know chords, tabs, tablatures, lyrics

Guitar lessons | Add/correct | Request | Top 50 tabs Artists:  A B C D E F G H I J K L M N O P Q R S T U V W X Y Z 0-9

Too Young To Know Guitar Tabs – Ufo

CD, Sheet music, Poster

Do you like Too Young To Know? Share with your friends now
Tabs
-------------------------------------------------------------------------------
-------------------------------------------------------------------------------
UFO


Tuning: Standard


INTRO:
e|------------------------|------------------------|
B|------------------------|------------------------|
G|------12----------------|------------0-----------|
D|------12----------------|--------0-------2p0-----|
A|-12h14---12h14p12/10-12-|--0h2----------------2--|
E|------------------------|------------------------|


[FIG: 1]
e|------------------------|------------------------|
B|------------------------|------------------------|
G|---/14-\-12-------------|-/14\12-11----------11--|
D|---------------12~~~~---|-----------14-12-14-----|
A|------------------------|------------------------|
E|------------------------|------------------------|
 |                        |                        |
e|--2---------2-----------|---3--------3---3---3---|
B|--3---------3-----------|---3--------3---3---3---|
G|--2---------2-----------|-x-0--------0---0---0---|
D|--0---------0-----------|-x-0--------0---0---0---|
A|------------------------|-x----------------------|
E|------------------------|-x-3--------3-----------|

                             |----let ring----|
e|------------------------|------------------------|
B|------------------------|-----------15-----------|
G|--/14~~~~~~~------------|----14/16------16\14----|
D|------------------------|------------------------|
A|------------------------|------------------------|
E|------------------------|------------------------|
 |                        |                        |
e|---2--------2----2------|---2--------2---2---2---|
B|---3--------3----3------|-x-3--------3---3---3---|
G|-x-2--------2----2---x--|-x-2--------2---2---2---|
D|-x-0--------0----0---x--|-x-0--------0---0---0---|
A|-x-------------------x--|------------------------|
E|------------------------|------------------------|


e|------------------------|------------------------|
B|------------------------|------------------------|
G|---/14-\-12-------------|-/14\12-11----------11--|
D|---------------12~~~~---|-----------14-12-14-----|
A|------------------------|------------------------|
E|------------------------|------------------------|
 |                        |                        |
e|--2---------2-----------|---3--------3---3---3---|
B|--3---------3-----------|---3--------3---3---3---|
G|--2---------2-----------|-x-0--------0---0---0---|
D|--0---------0-----------|-x-0--------0---0---0---|
A|------------------------|-x----------------------|
E|------------------------|-x-3--------3-----------|

                                       Well
e|------------------------|------------------------|
B|------------------------|-----------15-/17-19~~~-|
G|--/14~~~~~~~------------|--14 / 16---------------|
D|------------------------|------------------------|
A|------------------------|------------------------|
E|------------------------|------------------------|
 |                        |                        |
e|---2--------2----2------|---2--------2---2---2---|
B|---3--------3----3------|-x-3--------3---3---3---|
G|-x-2--------2----2---x--|-x-2--------2---2---2---|
D|-x-0--------0----0---x--|-x-0--------0---0---0---|
A|-x-------------------x--|------------------------|
E|------------------------|------------------------|


VERSE 1:
[FIG: 2]
 I'm stuck out in your street And I'm lookin' for some kinda
e|--2---------2-----------|---3--------3---3---3---|
B|--3---------3-----------|---3--------3---3---3---|
G|--2---------2-----------|-x-0--------0---0---0---|
D|--0---------0-----------|-x-0--------0---0---0---|
A|------------------------|-x----------------------|
E|------------------------|-x-3--------3-----------|

   Halo
e|---2--------2----2------|---2--------2---2---2---|
B|---3--------3----3------|-x-3--------3---3---3---|
G|-x-2--------2----2---x--|-x-2--------2---2---2---|
D|-x-0--------0----0---x--|-x-0--------0---0---0---|
A|-x-------------------x--|------------------------|
E|------------------------|------------------------|

 When somebody says to me "Hey boy she's too young to know,
e|--2---------2-----------|---3--------3---3---3---|
B|--3---------3-----------|---3--------3---3---3---|
G|--2---------2-----------|-x-0--------0---0---0---|
D|--0---------0-----------|-x-0--------0---0---0---|
A|------------------------|-x----------------------|
E|------------------------|-x-3--------3-----------|

  ...know"                                  Well I..
e|---2--------2----2------|---2--------2---2---2---|
B|---3--------3----3------|-x-3--------3---3---3---|
G|-x-2--------2----2---x--|-x-2--------2---2---2---|
D|-x-0--------0----0---x--|-x-0--------0---0---0---|
A|-x-------------------x--|------------------------|
E|------------------------|------------------------|

CHORUS:
[FIG: 3]
    Didn't   make  your     Time
e|------------------------|--2-----2----2----2-----|
B|----------1-----------3-|--3--x--3----3----3-----|
G|-------0--------------0-|--2--x--2----2----2-----|
D|----2--------------0----|--0--x--0----0----0-----|
A|-3--------------2-------|------------------------|
E|-------------3----------|------------------------|

    I never  said you were  Mine
e|------------------------|--2-----2----2----2-----|
B|----------1-----------3-|--3--x--3----3----3-----|
G|-------0--------------0-|--2--x--2----2----2-----|
D|----2--------------0----|--0--x--0----0----0-----|
A|-3--------------2-------|------------------------|
E|-------------3----------|------------------------|

  Don't you think it would  Show
e|------------------------|--2-----2----2----2-----|
B|----------1-----------3-|--3--x--3----3----3-----|
G|-------0--------------0-|--2--x--2----2----2-----|
D|----2--------------0----|--0--x--0----0----0-----|
A|-3--------------2-------|------------------------|
E|-------------3----------|------------------------|


  I guess I'll have to teach you rock n roll
e|------------------------|------------------------|
B|------------------------|------------------------|
G|------------------------|------------------------|
D|-2--2--4--2--2--2-4p2p0-|-2--2--4--2--2--2-4p2p0-|
A|-0--0--0--0--0--0-------|-0--0--0--0--0--0-------|
E|------------------------|------------------------|



VERSE 2:
[FIG: 2]
Met you outside school
Made sure no one was lookin'
And your teacher looks at me
All his envy growin'

CHORUS:
[FIG: 3]
Well I didn't make your time
I never said you were mine
Don't you think it would show
I guess I'll have to teach you rock n roll

[FIG: 1]

SOLO:
[FIG: 3]

VERSE 3:
[FIG: 2]
I said, "Take it easy baby,
Ya sure know what's showin'
And I can't help myself
Without all your friends knowin'"

CHORUS
[FIG: 3]

[FIG: 1]

CHORUS:
[FIG: 3]

    You got a long,       long way to go
e|------------------------|------------------------|
B|------------------------|------------------------|
G|------------------------|------------------------|
D|-2--2--4--2--2--2-4p2p0-|-2--2--4--2--2--2-4p2p0-|
A|-0--0--0--0--0--0-------|-0--0--0--0--0--0-------|
E|------------------------|------------------------|


OUTRO:
e|----------------|----------------|----------------|----------------|
B|----------------|----------------|----------------|----------------|
G|-2----2~--------|-2----2~--------|-2----2~--------|----------------|
D|-2----2~-2-4p2--|-2----2~-2-4p2--|-2----2~-2-4p2--|-2.-------------|
A|-0-3/4--------4-|-0-3/4--------4-|-0-3/4--------4-|-0.-------------|
E|----------------|----------------|----------------|----------------|


e|----------------|----------------|----------------|-0--------------|
B|----------------|----------------|----------------|-2--------------|
G|-2----2~--------|-2----2~--------|-2----2~--------|-2--------------|
D|-2----2~-2-4p2--|-2----2~-2-4p2--|-2----2~-2-4p2--|-2--------------|
A|-0-3/4--------4-|-0-3/4--------4-|-0-3/4--------4-|-0--------------|
E|----------------|----------------|----------------|----------------|




| /  slide up
| \  slide down
| h  hammer-on
| p  pull-off
| ~  vibrato
| +  harmonic
| x  Mute note
===============================================================================





Comments


Popular Ufo tabs & chords
Makin' Moves Bass Tabs
The Wild, The Willing And The Innocent Bass Tabs
Too Hot To Handle 1 Bass Tabs
Give Her The Gun Intro Tabs
Makin Moves Intro Tabs
Only You Can Rock Me (Solo) Tabs
Profession Of Violence Tabs
Profession Of Violence 1 Tabs
Stopped By A Bullet Of Love (Intro) Tabs
Time On My Hands (Solo) Tabs


Song lyrics



↑ Back to top | Tablatures and chords are parodies/interpretations of the original songs. You may use it for private study, scholarship, research or language learning purposes only
© 2014 AZChords.com Contact us | Privacy policy | DMCA | Add/correct tabs | Request tabs | Top 50 tabs