>
 >
 >
Time On My Hands (Solo)

Time On My Hands (Solo) Guitar Tabs

Ufo - Time On My Hands (Solo) chords, tabs, tablatures, lyrics

Guitar lessons | Add/correct | Request | Top 50 tabs Artists:  A B C D E F G H I J K L M N O P Q R S T U V W X Y Z 0-9

Time On My Hands (Solo) Guitar Tabs – Ufo

CD, Sheet music, Poster

Do you like Time On My Hands (Solo)? Share with your friends now
Tabs
Time On My Hands by UFO
 

      G           G/F#  Em              A    

E|---|---12------------|---------------|-------------------12b|
B|---|------15-13-12---|12-13-12----12-|(10pb12)r10-8-10------|
G|14b|16---------------|---------14----|-----------------9----|
D|---|-----------------|---------------|----------------------|
A|---|-----------------|---------------|----------------------|
E|---|-----------------|---------------|----------------------|

  D               G               G/F#                      

E|14-12-10-8--7-8|------7-10------------------------|
B|---------------|10b12------10b12-8-10-------------|
G|---------------|----------------------9--7-9---7--|
D|---------------|-----------------------------9----|
A|---------------|----------------------------------|
E|---------------|----------------------------------|

  Em                        A               D

E|-------------------------|---------------|----------------------|
B|-------------------------|---------------|----------------------|
G|-------------------------|---------------|----------------------|
D|7-9----7-----------------|5-7-7b9-7-5-4--|4-5-4h5p4---4-5-7-----|
A|----10----7-10----7-----7|--------------7|----------7-----------|
E|---------------10---7----|---------------|----------------------|

  G               G/F#           Em                

E|-------------------15---------|--------------------------------------|
B|15----12-13-15--15----12-13-12|12-(12pb13)r12-10-12-10---------------|
G|---12-------------------------|------------------------12-11-10------|
D|------------------------------|--------------------------------------|
A|------------------------------|--------------------------------------|
E|------------------------------|--------------------------------------|

  A                D                    G        G/F#

E|12-14-15---14-15|15b17r15-14----12-14|15-------12---------|
B|----------------|------------15------|---15-15----15-13-12|
G|----------------|--------------------|--------------------|
D|----------------|--------------------|--------------------|
A|----------------|--------------------|--------------------|
E|----------------|--------------------|--------------------|

  Em                              A                

E|-------------------------------|---------------------------------|
B|12-(12pb13)r12-10-12-10--------|13-12h13-12-10-8h10p8s7-8-7------|
G|------------------------12-11-9|----------------------------9-7-9|
D|-------------------------------|---------------------------------|
A|-------------------------------|---------------------------------|
E|-------------------------------|---------------------------------|

  D                      G             G/F#           

E|-------------------7-8|8b10r8--------12b14-12-10-8-7-8----|
B|7-8-10-(10pb12)r10----|-------8-8--8----------------------|
G|----------------------|-----------------------------------|
D|----------------------|-----------------------------------|
A|----------------------|-----------------------------------|
E|----------------------|-----------------------------------|

  Em                        A                    D

E|-------------------------|--------------------|--------------|
B|10b12-10-8-7-------------|--------------------|--------------|
G|-------------9-----------|--------------------|--------------|
D|---------------9-8-7-----|7-5h7p5s4-5-4-------|4-5-7-7b9r7---|
A|---------------------10-7|--------------7-5-7-|--------------|
E|-------------------------|--------------------|--------------|

  G               G/F#           Em

E|19-(19pb20)r19--22-(22pb24)r22|15-(15pb17)r15-14-12---12-|
B|------------------------------|--------------------------|
G|------------------------------|--------------------------|
D|------------------------------|--------------------------|
A|------------------------------|--------------------------|
E|------------------------------|--------------------------|

  A                               

E|------12-12----------------------------------|
B|15b17-------15b17r15-12--15b17r15-12---------|
G|-------------------------------------14-12---|
D|-------------------------------------------12|
A|---------------------------------------------|
E|---------------------------------------------|

  D                                  G     

E|--14-15-17-15-14------------------|---|
B|-15--------------17-15-12b13-12b13|12-|
G|14--------------------------------|---|
D|----------------------------------|---|
A|rake------------------------------|---|
E|----------------------------------|---|





Comments


Popular Ufo tabs & chords
Shoot Shoot Chords
All Or Nothing Tabs
Give Her The Gun Intro Tabs
Love To Love Tabs
Profession Of Violence (Solo) Tabs
Profession Of Violence 1 Tabs
Rock Bottom Live Tabs
Space Child Intro Tabs
Too Young To Know Tabs
World Cruise Intro Tabs


Song lyrics



↑ Back to top | Tablatures and chords are parodies/interpretations of the original songs. You may use it for private study, scholarship, research or language learning purposes only
© 2014 AZChords.com Contact us | Privacy policy | DMCA | Add/correct tabs | Request tabs | Top 50 tabs