» » »

Ufo, Sweet Little Thing Tabs (ver.1)

Artists:  A B C D E F G H I J K L M N O P Q R S T U V W X Y Z # 

Sweet Little Thing Tabs (ver.1)

Ufo Tabs
 Rating:
4.2/5 (5 votes)
Sweet Little Thing lessons Tabs too difficult? Try these video lessons and learn fast
1
                -------------------------------------------------------------------------------
-------------------------------------------------------------------------------
UFO

Tuning: Standard

INTRO:
[FIG: 1]
e|------------------------|------------------------|
B|------------------------|------------------------|
G|--9---------------9-----|--9---------------9-----|
D|--9-----9---11----9-----|--9-----9---11----9-----|
A|--7-----7---7-----7-----|--7-----7---7-----7-----|
E|--0---------------------|--0---------------------|

e|------------------------|------------------------|
B|--7----7----------------|------------------------|
G|--7----7----------------|--9---------------9-----|
D|--7----7----9--7--9--7--|--9-----9---11----9-----|
A|--5----5----5--5--5--5--|--7-----7---7-----7-----|
E|------------------------|--0---------------------|


VERSE:
[FIG: 1]
Just down here, I said hello
Tell me are you trying to get on

I said hey, now honey, I don't need your money
Want you to push me around

Ya know I looked you in the eye, said hey baby
Show me which way to go

What I intend to do don't you make a move
I got an interest in you

CHORUS:
[FIG: 2]
    Well you know         You know I need
e|------------------------|------------------------|
B|------------------------|------------------------|
G|-4--4--4--4--4--4--4--4-|-4--4--4--4--4--4--4--4-|
D|-4--4--4--4--4--4--4--4-|-4--4--4--4--4--4--4--4-|
A|-2--2--2--2--2--2--2--2-|-2--2--2--2--2--2--2--2-|
E|------------------------|------------------------|

   Sweet little thing like you
e|------------------------|------------------------|
B|------------------------|------------------------|
G|-2--2--2--2--2--2--2--2-|------------------------|
D|-2--2--2--2--2--2--2--2-|-2--2--2--2--2--2--2--2-|
A|-0--0--0--0--0--0--0--0-|-2--2--2--2--2--2--2--2-|
E|------------------------|-0--0--0--0--0--0--0--0-|

    Well you know         You know I need
e|------------------------|------------------------|
B|------------------------|------------------------|
G|-4--4--4--4--4--4--4--4-|-4--4--4--4--4--4--4--4-|
D|-4--4--4--4--4--4--4--4-|-4--4--4--4--4--4--4--4-|
A|-2--2--2--2--2--2--2--2-|-2--2--2--2--2--2--2--2-|
E|------------------------|------------------------|

   Sweet little thing like you
e|------------------------|-0----------------------|
B|------------------------|-0----------------------|
G|-2-----2--------2-------|-x----------------------|
D|-2-----2--------2-------|-2----------------------|
A|-0-----0--------0-------|-2----------------------|
E|------------3-------3b--|-0----------------------|


VERSE:
[FIG: 1]
Caught me by the arm, held on tight
I said hey what you tryin' to do
If I'm gonna make it, I'll make it with you
I got nothing to lose

Much too strong, need a little help
When you can help yourself
What I intend to do, don't you make a move
I got an interest in you

CHORUS
[FIG: 1]

SOLO:
[FIG: 1]

CHORUS

VERSE: 1

CHORUS



| /  slide up
| \  slide down
| h  hammer-on
| p  pull-off
| ~  vibrato
| +  harmonic
| x  Mute note
===============================================================================
            
Submit corrections

comments powered by Disqus
↑ Back to top | Ufo Tabs for Sweet Little Thing. Lyrics for acoustic guitar and electric guitar. 1 Tablatures and chords are parodies/interpretations of the original songs. You may use it for private study, scholarship, research or language learning purposes only