>
 >
 >
Shoot Shoot

Shoot Shoot Bass Tabs

Ufo - Shoot Shoot chords, tabs, tablatures, lyrics

Guitar lessons | Add/correct | Request | Top 50 tabs Artists:  A B C D E F G H I J K L M N O P Q R S T U V W X Y Z 0-9

Shoot Shoot Bass Tabs – Ufo

CD, Sheet music, Poster

Do you like Shoot Shoot? Share with your friends now
Bass TabsChordsUkulele

SHOOT SHOOT (Bassline)
As recorded by UFO




 

 

Gtr I (E A D G) - 'Staff'


  Q=138
 4/4
  Gtr I
  W          W          W          W
|----------|----------|----------|------|
|----------|----------|----------|------|
|----------|----------|----------|------|
|----------|----------|----------|------|


  E E E E E E E E   E E E E E E E E   E E E E E E E E   E E E E E E E E
|-----------------|-----------------|-----------------|-----------------|
|-----------------|-------0---0-----|-----------------|-------0---0-----|
|-0-0-0-0-0-0-0-0-|-0-0-0---------0-|-0-0-0-0-0-0-0-0-|-0-0-0---------0-|
|-----------------|-----------------|-----------------|-----------------|


  E E E E E E E E   E E E E E E E E   E E E E E E E E   E E E E E E E E
|-----------------|-----------------|-----------------|-----------------|
|-----------------|-------0---0-----|-----------------|-------0---0-----|
|-0-0-0-0-0-0-0-0-|-0-0-0---------0-|-0-0-0-0-0-0-0-0-|-0-0-0---------0-|
|-----------------|-----------------|-----------------|-----------------|


  E E E E E E E E   E E E E E E E E   E E E E E E E E   E E E E E E E E
|-----------------|-----------------|-----------------|-----------------|
|-----------------|-------0---0-----|-----------------|-----------------|
|-0-0-0-0-0-0-0-0-|-0-0-0---------0-|-0-0-0-0-0-0-0-0-|-0-0-0-0-0-0-0-0-|
|-----------------|-----------------|-----------------|-----------------|


  E E E E E E E E   E E E E E E E E   E E E E E E E E   E E E E E E E E
|-----------------|-----------------|-----------------|-----------------|
|-0-0-0-0-0-0-0-0-|-0-0-0-0-0-0-0-0-|-0-0-0-0-0-0-0-0-|-0-0-0-0-0-------|
|-----------------|-----------------|-----------------|---------------0-|
|-----------------|-----------------|-----------------|-----------3-----|


  +E  E E E E E +E  E   +E  E E E E E +E  E
|---------------------|---------------------|
|---------------------|---------------------|
|-(0)-0-0-0-0-------0-|-(0)-0-0-0-0-------0-|
|-------------3-(3)---|-------------3-(3)---|


  +E  E E E E E +E  E   +E  E E E E E Q
|---------------------|------------------|
|---------------------|---------------2--|
|-(0)-0-0-0-0-------0-|-(0)-0-0-0-0-0----|
|-------------3-(3)---|------------------|


  E E E E +E  E E E   +Q   Q  E E S E.   E E E E +E  E E E   +Q   Q  E E S E.
|-------------------|------------------|-------------------|------------------|
|-------------2-1-0-|-(0)--------------|-------------2-1-0-|-(0)--------------|
|-0-0---------------|---------3-5-5-3--|-0-0---------------|---------3-5-5-3--|
|-----4-3-(3)-------|------------------|-----4-3-(3)-------|------------------|


  E E E E +E  E E E   +Q   Q  E E S E.   E E E E +E  E E E   +Q   Q  E E S E.
|-------------------|------------------|-------------------|------------------|
|-------------2-1-0-|-(0)--------------|-------------2-1-0-|-(0)--------------|
|-0-0---------------|---------3-5-5-3--|-0-0---------------|---------3-5-5-3--|
|-----4-3-(3)-------|------------------|-----4-3-(3)-------|------------------|


  E E E E E E E E   E E E E E E E E   E E E E E E E E   E E E E E E E E
|-----------------|-----------------|-----------------|-----------------|
|-----------------|-----------------|-----------------|-----------------|
|-0-0-0-0-0-0-0-0-|-0-0-0-5---5-----|-----------------|-------5---5-----|
|-----------------|---------------5-|-5-5-5-5-5-5-5-5-|-5-5-5---------5-|


  E E E E E E E E   E E E E E E E E   E E E E E E E E   E E E E E E E E
|-----------------|-----------------|-----------------|-----------------|
|-----------------|-----------------|-----------------|-----------------|
|-----------------|-------5---5-----|-----------------|-----------------|
|-5-5-5-5-5-5-5-5-|-5-5-5---------5-|-5-5-5-5-5-5-5-5-|-5-5-5-5-5-5-5-5-|


  E E E E E E E E   E E E E E E E E   E E E E E E E E   E E E E E E E E
|-----------------|-----------------|-----------------|-----------------|
|-----------------|-----------------|-----------------|-----------------|
|-5-5-5-5-5-5-5-5-|-5-5-5-5-5-5-5-5-|-5-5-5-5-5-5-5-5-|-5-5-5-5-5-----0-|
|-----------------|-----------------|-----------------|-----------3-----|


  +E  E E E E E +E  E   +E  E E E E E +E  E
|---------------------|---------------------|
|---------------------|---------------------|
|-(0)-0-0-0-0-------0-|-(0)-0-0-0-0-------0-|
|-------------3-(3)---|-------------3-(3)---|


  +E  E E E E E E E   +E  E E E E E E E
|-------------------|-------------------|
|-------------------|-------------------|
|-(0)-0-0-0-0-----0-|-(0)-0-0-0-0-0-0-0-|
|-------------3-3---|-------------------|


  E E E E E E E E   +E  E E E E E E E   E E E E E E E E   E E E E E E E E
|-----------------|-------------------|-----------------|-----------------|
|-----------------|-------------------|-----------------|-----------------|
|-5-5-5-5-5-5-5-4-|-(4)-4-4-4-4-4-4-4-|-----------------|-----------------|
|-----------------|-------------------|-2-2-2-2-2-2-2-2-|-2-2-2-2-2-2-2-2-|


  E E E E E E E E   +E  E E E E E E E   E E E E E E E E   +E  E E E E E E E
|-----------------|-------------------|-----------------|-------------------|
|---------------0-|-(0)-0-0-0-0-0-0-0-|---------------0-|-(0)-0-0-0-0-0-0-0-|
|-0-0-0-0-0-0-0---|-------------------|-0-0-0-0-0-0-0---|-------------------|
|-----------------|-------------------|-----------------|-------------------|


  E E E E E E E E   +E  E E E E E E E   E E E E E E E E   E E E E E E E E
|-----------------|-------------------|-----------------|-----------------|
|---------------0-|-(0)-0-0-0-0-0-0-0-|-----------------|-----------------|
|-0-0-0-0-0-0-0---|-------------------|-0-0-0-0-0-0-0-0-|-0-0-0-0-0-0-0-0-|
|-----------------|-------------------|-----------------|-----------------|


  E E E E E E E E   E E E E E E E E   E E E E E E E E   E E E E E E E E
|-----------------|-----------------|-----------------|-----------------|
|-----------------|-----------------|-----------------|-----------------|
|-0-0-0-0-0-0-0-0-|-0-0-0-0-0-0-0-0-|-0-0-0-0-0-0-0-0-|-0-0-0-0-0-0-0-0-|
|-----------------|-----------------|-----------------|-----------------|


  E E E E E E E E   E E E E E E E E   E E E E E E E E   +E  E E E E E E E
|-----------------|-----------------|-----------------|-------------------|
|-----------------|-----------------|-0-0-0-0-0-0-0---|-------------------|
|-0-0-0-0-0-0-0-0-|-0-0-0-0-0-0-0-0-|---------------4-|-(4)-4-4-4-4-4-4-4-|
|-----------------|-----------------|-----------------|-------------------|


  E E E E E E E E   E E E E E E E E   E E E E E E E E   +E  E E E E E E E
|-----------------|-----------------|-----------------|-------------------|
|-----------------|-----------------|---------------0-|-(0)-0-0-0-0-0-0-0-|
|-----------------|-----------------|-0-0-0-0-0-0-0---|-------------------|
|-2-2-2-2-2-2-2-2-|-2-2-2-2-2-2-2-2-|-----------------|-------------------|


  E E E E E E E E   +E  E E E E E E E   E E E E E E E E   +E  E E E E E E E
|-----------------|-------------------|-----------------|-------------------|
|---------------0-|-(0)-0-0-0-0-0-0-0-|---------------0-|-(0)-0-0-0-0-0-0-0-|
|-0-0-0-0-0-0-0---|-------------------|-0-0-0-0-0-0-0---|-------------------|
|-----------------|-------------------|-----------------|-------------------|


  E E E E +E  E E E   +Q   Q  E E S E.   E E E E +E  E E E   +Q   Q  E E S E.
|-------------------|------------------|-------------------|------------------|
|-------------2-1-0-|-(0)--------------|-------------2-1-0-|-(0)--------------|
|-0-0---------------|---------3-5-5-3--|-0-0---------------|---------3-5-5-3--|
|-----4-3-(3)-------|------------------|-----4-3-(3)-------|------------------|


  E E E E +E  E E E   +Q   Q  E E S E.   E E E E +E  E E E   +Q   Q  E E S E.
|-------------------|------------------|-------------------|------------------|
|-------------2-1-0-|-(0)--------------|-------------2-1-0-|-(0)--------------|
|-0-0---------------|---------3-5-5-3--|-0-0---------------|---------3-5-5-3--|
|-----4-3-(3)-------|------------------|-----4-3-(3)-------|------------------|


  Q  E E E E E E   E E E E E E E E   E E E E E E E E   E E E E E E E E
|----------------|-----------------|-----------------|-----------------|
|----------------|-----------------|-----------------|-----------------|
|----0-0-0-0-0-0-|-0-0-0-0-0-5---5-|-----------------|-----------5---5-|
|----------------|-----------------|---5-5-5-5-5-5-5-|-5-5-5-5-5-------|


  E E Q  E E E E   E E E E E E E E   E E E E E E E E   E E E E E E E E
|----------------|-----------------|-----------------|-----------------|
|----------------|-----------------|-----------------|-----------------|
|----------------|---------------5-|---5-------------|-----------------|
|---5----5-5-5-5-|-5-5-5-5-5-5-5---|-------5-5-5-5-5-|-5-5-5-5-5-5-5-5-|


  E E E E E E E E   E E E E E E E E   E E E E E E E E   E E E E E E E E
|-----------------|-----------------|-----------------|-----------------|
|-----------------|-----------------|-----------------|-----------------|
|---------5-5-5-5-|-5-5-5-5-5-5-5-5-|-5-5-5-5-5-5-5-5-|-5-5-5-5-5-5-5-5-|
|-5-5-5-5---------|-----------------|-----------------|-----------------|


  E E E E +E  E E E   E E +E  E +E  E E E
|-------------------|---------------------|
|-------------------|---------------------|
|-5-----0-(0)-0-0-0-|-0-------0-(0)-0-0-0-|
|---3---------------|---3-(3)-------------|


  E E +E  E +E  E E E   E E +E  E +E  E E E
|---------------------|---------------------|
|---------------------|---------------------|
|-0-------0-(0)-0-0-0-|-0-------0-(0)-0-0-0-|
|---3-(3)-------------|---3-(3)-------------|


  E E E E E E E E   E E E E +E  E E E   E E E E E E E E   E E E E E E E E
|-----------------|-------------------|-----------------|-----------------|
|-----------------|-------------------|-----------------|-----------------|
|-0-0-0-0-5-5-5-5-|-5-5-5-4-(4)-4-4-4-|-4-4-4-4---------|-----------------|
|-----------------|-------------------|---------2-2-2-2-|-2-2-2-2-2-2-2-2-|


  E E E E E E E E   E E E E +E  E E E   E E E E E E E E   E E E E +E  E E E
|-----------------|-------------------|-----------------|-------------------|
|-----------------|-------0-(0)-0-0-0-|-0-0-0-0---------|-------0-(0)-0-0-0-|
|---------0-0-0-0-|-0-0-0-------------|---------0-0-0-0-|-0-0-0-------------|
|-2-2-2-2---------|-------------------|-----------------|-------------------|


  E E E E E E E E   E E E E +E  E E E   E E E E E E E E   +E  E E E +Q   Q
|-----------------|-------------------|-----------------|-------------------|
|-0-0-0-0---------|-------0-(0)-0-0-0-|-0-0-0-0---------|-----2-1-0-(0)-----|
|---------0-0-0-0-|-0-0-0-------------|---------0-0-----|-------------------|
|-----------------|-------------------|-------------4-3-|-(3)---------------|


  E E S E. E E E E   +E  E E E +Q   Q    E E S E. E E E E   +E  E E E +Q   Q
|------------------|-------------------|------------------|-------------------|
|------------------|-----2-1-0-(0)-----|------------------|-----2-1-0-(0)-----|
|-3-5-5-3--0-0-----|-------------------|-3-5-5-3--0-0-----|-------------------|
|--------------4-3-|-(3)---------------|--------------4-3-|-(3)---------------|


  E E S E. E E E E   +E  E E E +Q   Q    E E S E. H
|------------------|-------------------|---------------*|
|------------------|-----2-1-0-(0)-----|---------------*|
|-3-5-5-3--0-0-----|-------------------|-3-5-5-3-------*|
|--------------4-3-|-(3)---------------|---------------*|




--------------------------------------------------------------------------------


Duration Legend
---------------
W - whole; H - half; Q - quarter; E - 8th; S - 16th; T - 32nd; X - 64th; a - acciaccatura
+ - note tied to previous; . - note dotted; .. - note double dotted
Uncapitalized letters represent notes that are staccato (1/2 duration)
Irregular groupings are notated above the duration line
Duration letters will always appear directly above the note/fret number it represents the
duration for.  Duration letters with no fret number below them represent rests.  Multi-
bar rests are notated in the form Wxn, where n is the number of bars to rest for.  Low
melody durations appear below the staff

Tablature Legend
----------------
 h   - hammer-on
 p   - pull-off
 b   - bend
 pb  - pre-bend
 r   - bend release (if no number after the r, then release immediately)
 /\  - slide into or out of (from/to "nowhere")
 s   - legato slide
 S   - shift slide
 - natural harmonic
[n]  - artificial harmonic
n(n) - tapped harmonic
 ~   - vibrato
 tr  - trill
 T   - tap
 TP  - trem. picking
 PM  - palm muting
\n/  - tremolo bar dip; n = amount to dip
 \n  - tremolo bar down
 n/  - tremolo bar up
/n\  - tremolo bar inverted dip
 =   - hold bend; also acts as connecting device for hammers/pulls
 <> - volume swell (louder/softer)
 x   - on rhythm slash represents muted slash
 o   - on rhythm slash represents single note slash

Misc Legend
-----------
 |  - bar
||  - double bar
||o - repeat start
o|| - repeat end
*|  - double bar (ending)
 :  - bar (freetime)
 $  - Segno
 &  - Coda
Tempo markers -  = BPM(8/16=s8/s16), where s8 = swing 8ths, s16 = swing 16ths



--------------------------------------------------------------------------------





Comments


Popular Ufo tabs & chords
Love To Love Chords
Terri Chords
Crystal Light Tabs
Doctor Doctor 2 Tabs
Profession Of Violence Tabs
Space Child Tabs
Too Hot To Handle Tabs
Too Hot To Handle Intro Tabs
Too Young To Know Tabs
Love To Love Ukulele


Song lyrics



↑ Back to top | Tablatures and chords are parodies/interpretations of the original songs. You may use it for private study, scholarship, research or language learning purposes only
© 2014 AZChords.com Contact us | Privacy policy | DMCA | Add/correct tabs | Request tabs | Top 50 tabs