» » »

Ufo, Only You Can Rock Me Tabs (ver.2)

Artists:  A B C D E F G H I J K L M N O P Q R S T U V W X Y Z # 

Only You Can Rock Me Tabs (ver.2)

Ufo Tabs
 Rating:
4/5 (4 votes)
Only You Can Rock Me lessons Tabs too difficult? Try these video lessons and learn fast
                (Solo)
Only You Can Rock Me by UFO



Solo

  E           A              F#m          B                                     

E|-----------|--------------|------------|---------|
B|--------9-9|10-----10p9---|------------|---------|
G|11b13------|--------------|11---11-11-9|8--8-9-11|
D|------9----|---11---------|------------|---------|
A|-----------|--------------|------------|---------|
E|-----------|--------------|------------|---------|

  E                                         A                                               

E|---------------------11h12p11----11-12-14|16--------------|
B|---12h14p12----12-14----------14---------|---19b21r19-19tr|
G|13----------13---------------------------|----------------|
D|-----------------------------------------|----------------|
A|-----------------------------------------|----------------|
E|-----------------------------------------|----------------|

  F#m                       B

E|16-----------------------|------------19b21-19b21-19b21-19b21|
B|---19-17-19---17-19-17-16|17-16------------------------------|
G|-------------------------|------18-16------------------------|
D|-------------------------|-----------------------------------|
A|-------------------------|-----------------------------------|
E|-------------------------|-----------------------------------|

  E                         A                   F#m

E|19-17h19p17-16-17-19----|--------------------|--------------|
B|---------------------16b|17-16h17p16----16-17|19b21-(21)tr--|
G|------------------------|------------18------|--------------|
D|------------------------|--------------------|--------------|
A|------------------------|--------------------|--------------|
E|------------------------|--------------------|--------------|

  B                          E                              A             

E|--------------------------|----------16-17-16h17p16----16|------16-17---|
B|17-16---------------------|----17-19----------------19---|17-19-------19|
G|------18-16---------------|-18---------------------------|--------------|
D|------------18------------|------------------------------|--------------|
A|---------------18-17-16---|------------------------------|--------------|
E|------------------------19|------------------------------|--------------|

  F#m                B                          C               

E|------------------|---------16---------------|---|
B|19b21r19p17-19tr--|16-17-19----19-17-16------|---|
G|------------------|---------------------18-16|17-|
D|------------------|--------------------------|---|
A|------------------|--------------------------|---|
E|------------------|--------------------------|---|
            
Submit corrections

comments powered by Disqus
↑ Back to top | Ufo Tabs for Only You Can Rock Me. Lyrics for acoustic guitar and electric guitar. Tablatures and chords are parodies/interpretations of the original songs. You may use it for private study, scholarship, research or language learning purposes only