>
 >
 >
Mother Mary

Mother Mary Guitar Tabs

Ufo - Mother Mary chords, tabs, tablatures, lyrics

Guitar lessons | Add/correct | Request | Top 50 tabs Artists:  A B C D E F G H I J K L M N O P Q R S T U V W X Y Z 0-9

Mother Mary Guitar Tabs – Ufo

CD, Sheet music, Poster

Do you like Mother Mary? Share with your friends now
Tabs
-------------------------------------------------------------------------------
-------------------------------------------------------------------------------
UFO


Tuning: Standard


INTRO:
[FIG: 1]
e|--------------------------------|--------------------------------|
B|--------------------------------|--------------------------------|
G|--------------------------------|--------------------------------|
D|--3------5-----x--x-x---x--x-x--|-x-3----5----8~-----------------|
A|--3------5-----x--x-x---x--x-x--|-x-3----5----8~-----------------|
E|--1------3-----x--x-x---x--x-x--|-x-1----3----6~-----------------|

e|--------------------------------|--------------------------------|
B|--------------------------------|--------------------------------|
G|--------------------------------|--------------------ad lib------|
D|--3------5-----x--x-x---x--x-x--|-x-3----5----8~-----------------|
A|--3------5-----x--x-x---x--x-x--|-x-3----5----8~-----------------|
E|--1------3-----x--x-x---x--x-x--|-x-1----3----6~-----------------|


VERSE:
[FIG: 1]

Try to make some changes, Really on the line
Given your religion, Never ever time

All the jokers laughing, Queens upon the floor
Mothers understand it, Baby needs some more


[FIG: 2]
e|------------------------|------------------------|
B|------------------------|------------------------|
G|----5~------------------|----5~------------------|
D|------------------------|------------------------|
A|--3-----3----3----3-----|--3-----3----3----3-----|
E|----------6----5----4~~-|----------6----5----4~~-|

e|------------------------|------------------------|
B|------------------------|------------------------|
G|----5~------------------|----5~------------------|
D|------------------------|------------------------|
A|--3-----3----3----3-----|--3-----3----3----3-----|
E|----------6----5----4~~-|----------6----5----4~~-|


VERSE:
[FIG: 1]
Head held up to ransom, By a quick hand and a gun
Just your education, Hard to understand

Will the teenage legend Make a mark on you
Make a big time status, Then we'll run him through


[FIG: 3]
e|--------------------------------|--------------------------------|
B|--------------------------------|--------------------------------|
G|--5-5---3-3---2-2---------------|--5-5---3-3---2-2---------------|
D|--------------------6---5---3-2-|--------------------6---5---3-2-|
A|-3-----3-----3-----3---3---3----|-3-----3-----3-----3---3---3----|
E|--------------------------------|--------------------------------|

e|--------------------------------|--------------------------------|
B|--------------------------------|--------------------------------|
G|--5-5---3-3---2-2---------------|--5-5---3-3---2-2---------------|
D|--------------------6---5---3-2-|--------------------6---5---3-2-|
A|-3-----3-----3-----3---3---3----|-3-----3-----3-----3---3---3----|
E|--------------------------------|--------------------------------|


CHORUS:
[FIG: 4]
  Mother Mary, could you   Ever really feel the same
e|------6-----------------|------6-----------------|
B|-----6----------6-----6-|-----6----------6-----6-|
G|----7-----7-------7-----|----7-----7-------7-----|
D|---8----------------8---|---8----------------8---|
A|--8----------8----------|--8----------8----------|
E|-6----------------------|-6----------------------|

e|--------------------------------|--------------------------------|
B|--------------------------------|--------------------------------|
G|--5-5---3-3---2-2---------------|--5-5---3-3---2-2---------------|
D|--------------------6---5---3-2-|--------------------6---5---3-2-|
A|-3-----3-----3-----3---3---3----|-3-----3-----3-----3---3---3----|
E|--------------------------------|--------------------------------|

  And would you try to      Understand a wild colonial boy
e|------6-----------------|------6-----------------|
B|-----6----------6-----6-|-----6----------6-----6-|
G|----7-----7-------7-----|----7-----7-------7-----|
D|---8----------------8---|---8----------------8---|
A|--8----------8----------|--8----------8----------|
E|-6----------------------|-6----------------------|


SOLO:
RHYTHYM: [FIG: 5]
e|--------------------------------|--------------------------------|
B|--------------------11p10p8-----|--------------------------------|
G|---------8-10brp8-10--------10b-|--8-----------------------------|
D|-10-9-10br----------------------|----10-8------------------------|
A|--------------------------------|---------9-8-6-8p6----6---------|
E|--------------------------------|--------------------8----8/11~~-|
 |                                |                                |
e|--------------------------------|--------------------------------|
B|--------------------------------|--------------------------------|
G|--5-------5------5--5--5--5--5--|-/5-------5---x--5--5--5--5--x--|
D|--5---5-5-5---5--5--5--5--5--5--|-/5---5-5-5---x--5--5--5--5--x--|
A|--3---3-3-3---3--3--3--3--3--3--|-/3---3-3-3---x--3--3--3--3--x--|
E|--------------------------------|--------------------------------|

e|----8---------------------------|-----------------8--------------|
B|------11-8----------------------|-------------------11-8----8----|
G|-10b------11-10-8---------------|--------8----10b--------10---8\-|
D|-----------------10-8-----------|------8---8---------------------|
A|---------------------10-9-8-----|-8s10---------------------------|
E|---------------------------11-8-|--------------------------------|
 |                                |                                |
e|--------------------------------|--------------------------------|
B|--------------------------------|--------------------------------|
G|--5-------5------5--5--5--5--5--|-/5-------5---x--5--5--5--5--5--|
D|--5---5-5-5---5--5--5--5--5--5--|-/5---5-5-5---x--5--5--5--5--5--|
A|--3---3-3-3---3--3--3--3--3--3--|-/3---3-3-3---x--3--3--3--3--3--|
E|--------------------------------|--------------------------------|

e|-9------9------10---------------|-10-----10-----9----------------|
B|-12b14--12b14--13b15~~~~--------|-13b15--13b15--12b14~~~~--------|
G|--------------------------------|--------------------------------|
D|--------------------------------|--------------------------------|
A|--------------------------------|--------------------------------|
E|--------------------------------|--------------------------------|
 |                                |                                |
e|--------------------------------|--------------------------------|
B|--------------------------------|--------------------------------|
G|-2------2------2----------------|-2------2------2----------------|
D|-2------2------2----4p2-5p2-4p2-|-2------2------2----4p2-5p2-4p2-|
A|-0------0------0----0---0---0---|-0------0------0----0---0---0---|
E|--------------------------------|--------------------------------|

e|-9------10-----12---------------|-15-----13-----12---------------|-10-----
B|-12b14--13b15--15b17~~~~--------|-18b20--16b18--15b17~~~~--------|-13b15~~
G|--------------------------------|--------------------------------|--------
D|--------------------------------|--------------------------------|--------
A|--------------------------------|--------------------------------|--------
E|--------------------------------|--------------------------------|--------
 |                                |                                |
e|--------------------------------|--------------------------------|--------
B|--------------------------------|--------------------------------|--------
G|-2------2------2----------------|-2------2------2----------------|-7------
D|-2------2------2----4p2-5p2-4p2-|-2------2------2----4p2-5p2-4p2-|-7------
A|-0------0------0----0---0---0---|-0------0------0----0---0---0---|-5------
E|--------------------------------|--------------------------------|--------


VERSE
[FIG: 1]


CHORUS
[FIG: 4]


SOLO:
RHYTHYM [FIG: 5]
e|------------------------------------------|------------------------------------------|
B|------------------------------------------|------------------------------------------|
G|-------7-8-7h8p7--------------------------|------------------------------------------|
D|----10----------10-8----------------------|--------7-8-7h8p7------7-------8--8s10~~--|
A|-10-----------------10-9-8----8-6h8p6---6-|--8s10-------------10-----8-7-------------|
E|---------------------------11---------8---|------------------------------------------|

e|-----8----------------------------8-------|-8h11p8--8--------------------------------|
B|-------11p8---------------------8---8--11-|-------11-11p8-11p8--8--------------------|
G|-/9---------11p10p8--10-8-10b12-----------|-------------------11-11p10-8-------------|
D|------------------------------------------|-----------------------------10-8---------|
A|------------------------------------------|---------------------------------10-9-8---|
E|------------------------------------------|---------------------------------------11-|

e|-14-15-15-15h17-17-15-15b14--------------------------------------------------------------|
B|---------------------------17-15p14--15p14-----------------------------------------------|
G|-----------------------------------16-----16-14--16-14-----------------------------------|
D|-----------------------------------------------16-----17p16p14--16-14--------------14-16-|
A|--------------------------------------------------------------17-----17p16p14h16h17------|
E|-----------------------------------------------------------------------------------------|

e|-------------------------------------------14---|
B|--------------------14-15-14h15p14----14-15--17-|
G|---------14-16-14-16---------------16-----------|
D|-14h16h17---------------------------------------|
A|------------------------------------------------|
E|------------------------------------------------|

e|-14b15r14-12-14-12------------------------------|--------------------------------|
B|------------------12br-10-12-10-----------------|-----------------------14-14-14-|
G|-------------------------------12-11-9----------|---------9~~-/14-14-14-14-14-14-|
D|---------------------------------------12-10-11-|-----9-11----/14-14-14-14-14-14-|
A|------------------------------------------------|-12~~---------------------------|
E|------------------------------------------------|--------------------------------|


OUTRO:
e|--------------------------------|--------------------------------|
B|-14-----14-----15---------------|-15-----15-----14---------------|
G|-16b18--16b18--17b19~~~~--------|-17b19--17b19--16b18~~~~--------|
D|--------------------------------|--------------------------------|
A|--------------------------------|--------------------------------|
E|--------------------------------|--------------------------------|
 |                                |                                |
e|-12-----12-----14---------------|-14-----14-----12---------------|
B|-15b17--15b17--17b19~~~~--------|-17b19--17b19--15b17~~~~--------|
G|--------------------------------|--------------------------------|
D|--------------------------------|--------------------------------|
A|--------------------------------|--------------------------------|
E|--------------------------------|--------------------------------|
 |                                |                                |
e|--------------------------------|--------------------------------|
B|--------------------------------|--------------------------------|
G|-2------2------2----------------|-2------2------2----------------|
D|-2------2------2----4p2-5p2-4p2-|-2------2------2----4p2-5p2-4p2-|
A|-0------0------0----0---0---0---|-0------0------0----0---0---0---|
E|--------------------------------|--------------------------------|





| /  slide up
| \  slide down
| h  hammer-on
| p  pull-off
| ~  vibrato
| +  harmonic
| x  Mute note
===============================================================================





Comments


Popular Ufo tabs & chords
Doctor Doctor Bass Tabs
Shoot Shoot Bass Tabs
Too Hot To Handle Bass Tabs
Love To Love Chords
Shoot Shoot Chords
Only You Can Rock Me Tabs
Rock Bottom Live Tabs
Space Child Tabs
Space Child Intro Tabs
Melinda Ukulele


Song lyrics



↑ Back to top | Tablatures and chords are parodies/interpretations of the original songs. You may use it for private study, scholarship, research or language learning purposes only
© 2014 AZChords.com Contact us | Privacy policy | DMCA | Add/correct tabs | Request tabs | Top 50 tabs