>
 >
 >
Doctor Doctor 1

Doctor Doctor 1 Bass Tabs

Ufo - Doctor Doctor 1 chords, tabs, tablatures, lyrics

Guitar lessons | Add/correct | Request | Top 50 tabs Artists:  A B C D E F G H I J K L M N O P Q R S T U V W X Y Z 0-9

Doctor Doctor 1 Bass Tabs – Ufo

CD, Sheet music, Poster

Do you like Doctor Doctor 1? Share with your friends now
Bass TabsBass Tabs v2TabsTabs v2Tabs v3Tabs v4

DOCTOR DOCTOR (Bassline)
As recorded by UFO




 

 

Gtr I (E A D G) - 'Staff'


  Q=106
 4/4
  Gtr I
  Q.   E E  E  Q     Q.    E  Q   E  E
|-7------7-14-----|--------------------|
|------7------12--|--------------15-14-|
|-----------------|-13-------13--------|
|-----------------|-------13-----------|


   Q.    E  Q   E  E    Q.    E  E  E  E  E
|--------------------|-------------14--------|
|--------------14----|-12-------12----12-----|
|-12-------12-----12-|-------12----------12--|
|-------12-----------|-----------------------|


   Q.    E  E  E  E  E    Q.    E  Q   E  E
|-------------14-14----|--------------------|
|-12-------12-------12-|--------------------|
|-------12-------------|-12-------12--------|
|----------------------|-------12-----13-12-|


   Q.    E  E  E  Q     Q.    E  E  E  E  E
|--------------------|-------------14-------|
|-------------14-----|-12-------12----12----|
|-12-------12----12--|-------12----------12-|
|-------12-----------|----------------------|


   Q.    E  E  E  E  E    Q.    E  E  E  E  E
|-------------14-------|----------------------|
|-12-------12----12-12-|-------------15-------|
|-------12-------------|-13-------13----13----|
|----------------------|-------13----------13-|


   Q.    E  E  E  Q     H     Q   Q
|--------------------|-------14------|
|-------------14-----|-12--------12--|
|-12-------12----12--|---------------|
|-------12-----------|---------------|


   H     +Q    Q    H    +H       H    +H        H     +H
|-----------------|-------------|-------------|---------------|
|-----------------|-------------|-------------|---------------|
|-----------------|-------------|-------------|---------------|
|-10----(10)--10--|-6----(6)----|-8----(8)----|-10----(10)----|


   H     +Q    Q    H    +H       H    +H       H    H
|-----------------|-------------|-------------|-----------|
|-----------------|-------------|-------------|-----------|
|-----------------|-------------|-------------|------0----|
|-10----(10)--10--|-6----(6)----|-1----(1)----|-3---------|


  E. S E. S E. S E. S   E. S E. S E. S E. S
|---------------------|-------------------0-|
|---------------------|---------------------|
|-5--5-5--5-5--5-5--3-|-1--1-1--1-1--1-1----|
|---------------------|---------------------|


  E. S E. S E. S E. S   E. S E. S E. S E. S
|---------------------|---------------------|
|-3--3-3--3-3--3-3--3-|---------------------|
|---------------------|-3--3-3--3-3--3-3--3-|
|---------------------|---------------------|


  E. S E. S E. S E. S   E. S E. S E. S E. S
|---------------------|-------------------0-|
|---------------------|---------------------|
|-5--5-5--5-5--5-5--3-|-1--1-1--1-1--1-1----|
|---------------------|---------------------|


  E. S E. S E. S E. S   E. S E. S E. S E. S
|---------------------|---------------------|
|-3--3-3--3-3--3-3--3-|---------------------|
|---------------------|-----------0--0-0--0-|
|---------------------|-3--3-3--3-----------|


  E. S E. S E. S E. S   E. S E. S E. S E. S
|---------------------|-------------------0-|
|---------------------|---------------------|
|-5--5-5--5-5--5-5--3-|-1--1-1--1-1--1-1----|
|---------------------|---------------------|


  E. S E. S E. S E. S   E. S E. S E. S E. S
|---------------------|---------------------|
|-3--3-3--3-3--3-3--3-|---------------------|
|---------------------|-3--3-3--3-3--3-3--3-|
|---------------------|---------------------|


  E. S E. S E. S E. S   E. S E. S E. S E. S
|---------------------|-------------------0-|
|---------------------|---------------------|
|-5--5-5--5-5--5-5--3-|-1--1-1--1-1--1-1----|
|---------------------|---------------------|


  E. S E. S E. S E. S   E. S E. S E. S E. S
|---------------------|---------------------|
|-3--3-3--3-3--3-3--3-|---------------------|
|---------------------|-0--0-0--0-0--0-0--0-|
|---------------------|---------------------|


  E. S E. S E. S E. S   E. S E. S E. S E. S
|---------------------|-------------------0-|
|---------------------|---------------------|
|-5--5-5--5-5--5-5--3-|-1--1-1--1-1--1-1----|
|---------------------|---------------------|


  E. S E. S E. S E. S   E. S E. S E. S E. S
|---------------------|---------------------|
|-3--3-3--3-3--3-3--3-|---------------------|
|---------------------|-3--3-3--3-3--3-3--3-|
|---------------------|---------------------|


  E. S E. S E. S E. S   E. S E. S E. S E. S
|---------------------|-------------------0-|
|---------------------|---------------------|
|-5--5-5--5-5--5-5--3-|-1--1-1--1-1--1-1----|
|---------------------|---------------------|


  E. S E. S E. S E. S   E. S E. S E. S E. S
|---------------------|---------------------|
|-3--3-3--3-3--3-3--3-|---------------------|
|---------------------|-----------0--0-0--0-|
|---------------------|-3--3-3--3-----------|


  E E +Q   E E Q    E E +Q   E E Q    E. S E. S E. S E. S
|-----------------|-----------------|---------------------|
|-----------------|-----------------|---------------------|
|-5-5-(5)---------|-----------------|-----------0--0-0--0-|
|----------6-6----|-8-8-(8)--1-1----|-3--3-3--3-----------|


  S S S S S S S S S S S S S S S S   E E +Q   E E Q    E E +Q   E E Q
|---------------------------------|-----------------|------------------|
|---------------------------------|-----------------|------------------|
|-5-5---5-5-5---5-5-5---5-5-5---5-|-5-5-(5)---------|------------------|
|---------------------------------|----------6-6----|-8-8-(8)--1-1-----|


  E. S E. S E. S E. S   S S S S S S S S S S S S S S S S   E. S E. S E. S E. S
|---------------------|---------------------------------|----------------------|
|---------------------|---------------------------------|----------------------|
|-----------0--0-0--0-|-5-5---5-5-5---5-5-5---5-5-5---5-|-5--5-5--5-5--5-5--3--|
|-3--3-3--3-----------|---------------------------------|----------------------|


  E. S E. S E. S E. S   E. S E. S E. S E. S
|-------------------0-|---------------------|
|---------------------|-3--3-3--3-3--3-3--3-|
|-1--1-1--1-1--1-1----|---------------------|
|---------------------|---------------------|


  E. S E. S E. S E. S   E. S E. S E. S E. S
|---------------------|---------------------|
|---------------------|---------------------|
|-3--3-3--3-3--3-3--3-|-5--5-5--5-5--5-5--3-|
|---------------------|---------------------|


  E. S E. S E. S E. S   E. S E. S E. S E. S
|-------------------0-|---------------------|
|---------------------|-3--3-3--3-3--3-3--3-|
|-1--1-1--1-1--1-1----|---------------------|
|---------------------|---------------------|


  E. S E. S E. S E. S   E. S E. S E. S E. S
|---------------------|---------------------|
|---------------------|---------------------|
|-----------0--0-0--0-|-5--5-5--5-5--5-5--3-|
|-3--3-3--3-----------|---------------------|


  E. S E. S E. S E. S   E. S E. S E. S E. S
|-------------------0-|---------------------|
|---------------------|-3--3-3--3-3--3-3--3-|
|-1--1-1--1-1--1-1----|---------------------|
|---------------------|---------------------|


  E. S E. S E. S E. S   E. S E. S E. S E. S
|---------------------|---------------------|
|---------------------|---------------------|
|-3--3-3--3-3--3-3--3-|-5--5-5--5-5--5-5--3-|
|---------------------|---------------------|


  E. S E. S E. S E. S   E. S E. S E. S E. S
|-------------------0-|---------------------|
|---------------------|-3--3-3--3-3--3-3--3-|
|-1--1-1--1-1--1-1----|---------------------|
|---------------------|---------------------|


  E. S E. S E. S E. S   E. S E. S E. S E. S
|---------------------|---------------------|
|---------------------|---------------------|
|-0--0-0--0-0--0-0--0-|-5--5-5--5-5--5-5--3-|
|---------------------|---------------------|


  E. S E. S E. S E. S   E. S E. S E. S E. S
|-------------------0-|---------------------|
|---------------------|-3--3-3--3-3--3-3--3-|
|-1--1-1--1-1--1-1----|---------------------|
|---------------------|---------------------|


  E. S E. S E. S E. S   E. S E. S E. S E. S
|---------------------|---------------------|
|---------------------|---------------------|
|-3--3-3--3-3--3-3--3-|-5--5-5--5-5--5-5--3-|
|---------------------|---------------------|


  E. S E. S E. S E. S   E. S E. S E. S E. S
|-------------------0-|---------------------|
|---------------------|-3--3-3--3-3--3-3--3-|
|-1--1-1--1-1--1-1----|---------------------|
|---------------------|---------------------|


  E. S E. S E. S E. S   E. S +E. S S S E +S  E.
|---------------------|--------------------------|
|---------------------|--------------------------|
|-----------0--0-0--0-|-5--5-(5)-5---3-1-(1)-1---|
|-3--3-3--3-----------|--------------------------|


  +S  S S S E. S +E. S S S E   +S  S S S E. S E. S E. S   E. S Q  H
|----------------------------|--------------------------|--------------|
|----------------------------|--------------------------|--------------|
|-(1)-1---1-3--3-(3)-3-------|---------------------0--0-|-0--0---------|
|------------------------1-1-|-(1)---1-1-3--3-3--3------|--------------|


  Q  E. S +E. S S S E   +S  E. +S  S S S E. S +E. S
|---------------------|-----------------------------|
|---------------------|-----------------------------|
|----5--5-(5)-5---3-1-|-(1)-1--(1)-1---1-3--3-(3)-3-|
|---------------------|-----------------------------|


  S S E +S  S S S E. S E. S
|---------------------------|
|---------------------------|
|---------------------------|
|---1-1-(1)---1-1-3--3-3--3-|


  E. S E. S H      H    E. S E. S   E. S E. S E. S E. S   E. S E. S E. S E. S
|----------------|----------------|---------------------|---------0-----------|
|----------------|----------------|---------------------|-----------3--3-3--3-|
|-0--0-0--0------|------5--5-5--5-|-5--5-5--3-1--1-1--1-|-1--1-1--------------|
|----------------|----------------|---------------------|---------------------|


  E. S E. S E. S E. S   E. S E. S E. S E. S
|---------------------|---------------------|
|-3--3-3--3-----------|---------------------|
|-----------3--3-3--3-|-3--3-3--3-5--5-5--5-|
|---------------------|---------------------|


  E. S E. S E. S E. S   E. S E. S E. S E. S
|---------------------|---------0-----------|
|---------------------|-----------3--3-3--3-|
|-5--5-5--3-1--1-1--1-|-1--1-1--------------|
|---------------------|---------------------|


  E. S E. S E. S E. S   E. S E. S E. S E. S
|---------------------|---------------------|
|-3--3-3--3-----------|---------------------|
|---------------------|-0--0-0--0-5--5-5--5-|
|-----------3--3-3--3-|---------------------|


  E. S E. S E. S E. S   E. S E. S E. S E. S
|---------------------|---------0-----------|
|---------------------|-----------3--3-3--3-|
|-5--5-5--3-1--1-1--1-|-1--1-1--------------|
|---------------------|---------------------|


  E. S E. S E. S E. S   E. S E. S E. S E. S
|---------------------|---------------------|
|-3--3-3--3-----------|---------------------|
|-----------3--3-3--3-|-3--3-3--3-5--5-5--5-|
|---------------------|---------------------|


  E. S E. S E. S E. S   E. S E. S E. S E. S
|---------------------|---------0-----------|
|---------------------|-----------3--3-3--3-|
|-5--5-5--3-1--1-1--1-|-1--1-1--------------|
|---------------------|---------------------|


  E. S E. S E. S E. S   E. S E. S E. S E. S
|---------------------|---------------------|
|-3--3-3--3-5--5-5--5-|-7--7-7--7-----------|
|---------------------|-----------5--5-5--5-|
|---------------------|---------------------|


  E. S E. S E. S E. S   E. S E. S E. S E. S
|---------------------|---------0-----------|
|---------------------|-----------3--3-3--3-|
|-5--5-5--3-1--1-1--1-|-1--1-1--------------|
|---------------------|---------------------|


  E. S E. S E. S E. S   E. S E. S E. S E. S
|---------------------|---------------------|
|-3--3-3--3-----------|---------------------|
|-----------3--3-3--3-|-3--3-3--3-5--5-5--5-|
|---------------------|---------------------|


  E. S E. S E. S E. S   E. S E. S E. S E. S
|---------------------|---------0-----------|
|---------------------|-----------3--3-3--3-|
|-5--5-5--3-1--1-1--1-|-1--1-1--------------|
|---------------------|---------------------|


  E. S E. S E. S E. S   E. S E. S E. S +E. S   S S E +S  E. +S  S S S E. S
|---------------------|----------------------|-----------------------------|
|-3--3-3--3-----------|----------------------|-----------------------------|
|---------------------|-0--0-0--0-5--5-(5)-5-|---3-1-(1)-1--(1)-1---1-3--3-|
|-----------3--3-3--3-|----------------------|-----------------------------|


  +E. S S S E +S  S S S E. S   E. S E. S E. S Q    H    Q  E. S
|----------------------------|-------------------|--------------|
|----------------------------|-------------------|--------------|
|-(3)-3----------------------|------0--0-0--0----|---------5--5-|
|---------1-1-(1)---1-1-3--3-|-3--3--------------|--------------|


  +E. S S S E +S  E. +S  S S S
|------------------------------|
|------------------------------|
|-(5)-5---3-1-(1)-1--(1)-1---1-|
|------------------------------|


  E. S +E. S S S E +S  S S S   E. S E. S E. S E. S
|----------------------------|---------------------|
|----------------------------|---------------------|
|-3--3-(3)-3-----------------|-----------0--0-0--0-|
|--------------1-1-(1)---1-1-|-3--3-3--3-----------|


  W          E. S E. S E. S E. S   E. S E. S E. S E. S   E. S E. S E. S E. S
|----------|---------------------|-------------------0-|---------------------|
|----------|---------------------|---------------------|-3--3-3--3-3--3-3--3-|
|----------|-5--5-5--5-5--5-5--3-|-1--1-1--1-1--1-1----|---------------------|
|----------|---------------------|---------------------|---------------------|


  E. S E. S E. S E. S   E. S E. S E. S E. S
|---------------------|---------------------|
|---------------------|---------------------|
|-3--3-3--3-3--3-3--3-|-5--5-5--5-5--5-5--3-|
|---------------------|---------------------|


  E. S E. S E. S E. S   E. S E. S E. S E. S
|-------------------0-|---------------------|
|---------------------|-3--3-3--3-3--3-3--3-|
|-1--1-1--1-1--1-1----|---------------------|
|---------------------|---------------------|


  E. S E. S E. S E. S   E. S E. S E. S E. S
|---------------------|---------------------|
|---------------------|---------------------|
|-----------0--0-0--0-|-5--5-5--5-5--5-5--3-|
|-3--3-3--3-----------|---------------------|


  E. S E. S E. S E. S   E. S E. S E. S E. S
|-------------------0-|---------------------|
|---------------------|-3--3-3--3-3--3-3--3-|
|-1--1-1--1-1--1-1----|---------------------|
|---------------------|---------------------|


  E. S E. S E. S E. S   E. S E. S E. S E. S
|---------------------|---------------------|
|---------------------|---------------------|
|-3--3-3--3-3--3-3--3-|-5--5-5--5-5--5-5--3-|
|---------------------|---------------------|


  E. S E. S E. S E. S   E. S E. S E. S E. S
|-------------------0-|---------------------|
|---------------------|-3--3-3--3-3--3-3--3-|
|-1--1-1--1-1--1-1----|---------------------|
|---------------------|---------------------|


  E. S E. S E. S E. S   E. S E. S E. S E. S
|---------------------|---------------------|
|-5--5-5--5-7--7-7--7-|---------------------|
|---------------------|-5--5-5--5-5--5-5--3-|
|---------------------|---------------------|


  E. S E. S E. S E. S   E. S E. S E. S E. S
|-------------------0-|---------------------|
|---------------------|-3--3-3--3-3--3-3--3-|
|-1--1-1--1-1--1-1----|---------------------|
|---------------------|---------------------|


  E. S E. S E. S E. S   E. S E. S E. S E. S
|---------------------|---------------------|
|---------------------|---------------------|
|-3--3-3--3-3--3-3--3-|-5--5-5--5-5--5-5--3-|
|---------------------|---------------------|


  E. S E. S E. S E. S   E. S E. S E. S E. S
|-------------------0-|---------------------*|
|---------------------|-3--3-3--3-3--3-3--3-*|
|-1--1-1--1-1--1-1----|---------------------*|
|---------------------|---------------------*|




--------------------------------------------------------------------------------


Duration Legend
---------------
W - whole; H - half; Q - quarter; E - 8th; S - 16th; T - 32nd; X - 64th; a - acciaccatura
+ - note tied to previous; . - note dotted; .. - note double dotted
Uncapitalized letters represent notes that are staccato (1/2 duration)
Irregular groupings are notated above the duration line
Duration letters will always appear directly above the note/fret number it represents the
duration for.  Duration letters with no fret number below them represent rests.  Multi-
bar rests are notated in the form Wxn, where n is the number of bars to rest for.  Low
melody durations appear below the staff

Tablature Legend
----------------
 h   - hammer-on
 p   - pull-off
 b   - bend
 pb  - pre-bend
 r   - bend release (if no number after the r, then release immediately)
 /\  - slide into or out of (from/to "nowhere")
 s   - legato slide
 S   - shift slide
 - natural harmonic
[n]  - artificial harmonic
n(n) - tapped harmonic
 ~   - vibrato
 tr  - trill
 T   - tap
 TP  - trem. picking
 PM  - palm muting
\n/  - tremolo bar dip; n = amount to dip
 \n  - tremolo bar down
 n/  - tremolo bar up
/n\  - tremolo bar inverted dip
 =   - hold bend; also acts as connecting device for hammers/pulls
 <> - volume swell (louder/softer)
 x   - on rhythm slash represents muted slash
 o   - on rhythm slash represents single note slash

Misc Legend
-----------
 |  - bar
||  - double bar
||o - repeat start
o|| - repeat end
*|  - double bar (ending)
 :  - bar (freetime)
 $  - Segno
 &  - Coda
Tempo markers -  = BPM(8/16=s8/s16), where s8 = swing 8ths, s16 = swing 16ths



--------------------------------------------------------------------------------





Comments


Popular Ufo tabs & chords
Doctor Doctor Bass Tabs
Too Hot To Handle Chords
High Flyer Tabs
I'm A Loser Tabs
Rock Bottom Tabs
This Kids Tabs
Time On My Hands (Solo) Tabs
Too Hot To Handle Intro Tabs
Love To Love Ukulele
Melinda Ukulele


Song lyrics



↑ Back to top | Tablatures and chords are parodies/interpretations of the original songs. You may use it for private study, scholarship, research or language learning purposes only
© 2014 AZChords.com Contact us | Privacy policy | DMCA | Add/correct tabs | Request tabs | Top 50 tabs