» » »

Ufo, Doctor Doctor Tabs (ver.2)

Artists:  A B C D E F G H I J K L M N O P Q R S T U V W X Y Z # 

Doctor Doctor Tabs (ver.2)

Ufo Tabs
 Rating:
4/5 (11 votes)
Doctor Doctor lessons Tabs too difficult? Try these video lessons and learn fast
                ----------------------------------------------------------------------------
                             Doctor Doctor - UFO
----------------------------------------------------------------------------


Intro
e|------------------------------------------------------------------|
B|------------------------------------------------------------------|
G|----0-2-2h3---5—-2h3-2--------0-2-2h3---2----4--6-----------------|
D|-3-------------------------3--------------------------------------|
A|------------------------------------------------------------------|
E|------------------------------------------------------------------|

Bridge riff
e|------------------------------------------------------------------|
B|------------------------------------------------------------------|
G|---9b10-rb9b10-----------10—12/14-12-----12b14---14rb12--10-------|
D|---------------12---10--------------------------------------------|
A|------------------------------------------------------------------|
E|------------------------------------------------------------------|

e|------------------------------------------------------------------|
B|-----------------------12—-13-13/15-------------------------------|
G|--10~~~--------10—8h10--------------------------------------------|
D|---------10h12----------------------------------------------------|
A|------------------------------------------------------------------|
E|------------------------------------------------------------------|

Main Riff/Verse
e|------------------------------------------------------------------|
B|------------------------------------------------------------------|
G|------------------------------------------------------------------|
D|-7-7-7-7-7-7-7\5-5-3-3-3-3-3-3-3-3-----------------5-5-5-5-5-5-5-5|
A|-5-5-5-5-5-5-5\3-3—1-1-1-1-1-1-1-1-3-3-3-3-3-3-3-3-3-3-3-3-3-3-3-3|
E|-----------------------------------1-1-1-1-1-1-1-1----------------|

e|------------------------------------------------------------------|
B|------------------------------------------------------------------|
G|------------------------------------------------------------------|
D|-7-7-7-7-7-7-7\5-5-3-3-3-3-3-3-3-3-------------------------2-2-2-2|
A|-5-5-5-5-5-5-5\3-3—1-1-1-1-1-1-1-1-3-3-3-3-3-3-3-3-5-5-5-5-0-0-0-0|
E|-----------------------------------1-1-1-1-1-1-1-1-3-3-3-3--------|

Chorus (X2)
e|------------------------------------------------------------------|
B|------------------------------------------------------------------|
G|------------------------------------------------------------------|
D|-7-7\-3-3-5-5\---------2-2-7-7-7-7-7-7-7-7-7-7-7-7----------------|
A|-5-5\-1-1-3-3\-3-3-5-5-0-0—5-5-5-5-5-5-5-5-5-5-5-5----------------|
E|---------------1-1-3-3--------------------------------------------|


| /  slide up
| \  slide down
| h  hammer-on
| p  pull-off
| ~  vibrato
| +  harmonic
| x  Mute note
            
Submit corrections

comments powered by Disqus
↑ Back to top | Ufo Tabs for Doctor Doctor. Lyrics for acoustic guitar and electric guitar. Tablatures and chords are parodies/interpretations of the original songs. You may use it for private study, scholarship, research or language learning purposes only