>
 >
Que Pides Tu

Que Pides Tu Chords

Ubago Alex - Que Pides Tu chords, tabs, tablatures, lyrics

Guitar lessons | Add/correct | Request | Top 50 tabs Artists:  A B C D E F G H I J K L M N O P Q R S T U V W X Y Z 0-9

Que Pides Tu Chords – Ubago Alex

CD, Sheet music, Poster

Do you like Que Pides Tu? Share with your friends now
Chords
Un saludo para Gaby y para Paloma nada mas para rekordarles ke las amamos muchisimooo...
De parte d Sink & Jesad-x

Intro: 
       Em         C          G         D
e|------------3---3----------------3---2--2p0-----------|
B|------------0---1----------------0---3------3---------|
G|------------0---0--------0-------0---2--------2-------|
D|----------2-----2----0h2-------0-----0----------0-----|
A|--------2-------3--3---------2--------------------0---|
E|--3-2-0--------------------3--------------------------|

    Em        C                        D
e|--------3---3------------------------2----------|
B|--------0---1-----------3-----3------3----------|
G|--------0---0-------------0-----0----2----------|
D|------2-----2---------------0--------0----------|
A|----2-------3---0-2-3---------------------------|
E|--0---------------------------------------------|


  G                            Em
Puede que algún día por estas fechas 
                    C  
no recuerdes ya la letra
          D
de aquel tema que compuse por ti


  G                        Em
Puede que la vida sea tan breve
                        C
o que el tiempo no se acuerde 
       D  
de editar lo que nos toca vivir 


   C            D          Em
Vuelve, vuelve tarde pero vuelve
        Am          C
vuelve niña si te pierdes
            D
hoy quiero verte

     C          D              Em   
Y vuela, vuela alto mientras puedas
        Am           C
que la vida es una rueda
           D
que nunca frena Nooo!


          Bm           Em         
Vives esperando un corazón extraño
C            D
que venga aquí
               B7          Em
y saque de tu cuerpo y tu alma
C          D
lo mejor de ti

                   Bm         Em
hoy siento que la vida me muestra contigo
C        D 
su lado azul
                  B7       Em
y es todo lo que pido por ser feliz
C        D                  Em 
que pides tu...    Que pides tu


SOLO
    Em   C    G     D      E     C      G     D
e|-----------------------------------------------------|
B|--5--3-----------------------------------------------|
D|---------------4--2------0--2--4------5--4--2--------|
G|-------5----5----------------------------------------|
A|-----------------------------------------------------|
E|-----------------------------------------------------|


  G                         Em  
Puede que se muera en un instante
                      C 
por el miedo a equivocarme 
         D
todo aquello por lo que un día soñé


   G                          Em
Puede que me lance hacia el vacío
                    C
como un día hice contigo
        D
sin pensar lo que vendría después


   C            D          Em
Vuelve, vuelve tarde pero vuelve
        Am          C
vuelve niña si te pierdes
            D
hoy quiero verte

     C          D              Em   
Y vuela, vuela alto mientras puedas
        Am           C
que la vida es una rueda
           D
que nunca frena Nooo!


          Bm           Em         
Vives esperando un corazón extraño
C            D
que venga aquí
               B7          Em
y saque de tu cuerpo y tu alma
C          D
lo mejor de ti

                   Bm         Em
hoy siento que la vida me muestra contigo
C        D 
su lado azul
                  B7       Em
y es todo lo que pido por ser feliz
C        D                  
que pides tu...    
               Bm           Em         
Que Vives esperando un corazón extraño
C            D
que venga aquí
               B7          Em
y saque de tu cuerpo y tu alma lo
C          D
mejor de ti

                   Bm         Em
hoy siento que la vida me muestra contigo
C        D 
su lado azul
                  B7       Em
y es todo lo que pido por ser feliz
C        D                  Em 
que pides tu...    Que pides tu

    Em   C    G
e|------------7p5---7---|
B|--5--3----------8-----|
D|----------------------|
G|-------5--------------|
A|----------------------|
E|----------------------|


Chords: You can use these chords too.
Tambien se pueden usar estos acordes en la cancion, suena mejor.

   Em  C  G  D  Am  Bm  B7
e|--3--3--3--2--3---2---2---|
B|--3--3--3--3--1---3---0---|
D|--0--0--0--2--2---4---2---|
G|--2--2--0--0--2---4---1---|
A|--2--3--2--0--0---2---2---|
E|--0--0--3--0--0---x---0---|





Comments


Popular Ubago Alex tabs & chords
Lo Mas Grande Chords
Me Muero Por Conocerte Chords
Sigo Aqui Chords
Sin Miedo A Nada Chords
A Gritos De Esperanza Tabs


Song lyrics



↑ Back to top | Tablatures and chords are parodies/interpretations of the original songs. You may use it for private study, scholarship, research or language learning purposes only
© 2014 AZChords.com Contact us | Privacy policy | DMCA | Add/correct tabs | Request tabs | Top 50 tabs