>
 >
A Gritos De Esperanza

A Gritos De Esperanza Guitar Tabs

Ubago Alex - A Gritos De Esperanza chords, tabs, tablatures, lyrics

Guitar lessons | Add/correct | Request | Top 50 tabs Artists:  A B C D E F G H I J K L M N O P Q R S T U V W X Y Z 0-9

A Gritos De Esperanza Guitar Tabs – Ubago Alex

CD, Sheet music, Poster

Do you like A Gritos De Esperanza? Share with your friends now
Tabs
aqui teneis a un gran cantautor español que me gusta mucho. lo digo en español porque
creo que el que lea esto sabe español. que lo disfruteis.(si quereis algo escribirme 

Intro:
E-||----------------------0/2-2/3---3\2------------------------
B-||------------0/1-1/3-------------------3--3/5--5------------
G-||--0/2-2/4--------------------------------------------------
D-||--------------------------------------4--4/5--5------------
A-||-----------------------------------------------------------
E-||-----------------------------------------------------------

E-||-----------------------------------------------------------
B-||--5\3-1-0---0/1-0---------------------3--3/5-5-1-----------
G-||------------------2----0-2-2/4--2-0------------------------
D-||--------------------------------------4--4/5-5-2-----------
A-||-----------------------------------------------------------
E-||-----------------------------------------------------------


C* 
E-||---------
B-||---0/1-1-
G-||---------
D-||-2-2/2-2-
A-||-3-3/2-2-
E-||---------

D* 
E-||-2-0/2-2-
B-||-3-3/3-3-
G-||-2-2/2-2-
D-||---------
A-||---------
E-||---------

     G 
A pesar
           D        Em    Bm
De que la luna no brille
C*
Mañana
           G
Me dará igual
             D
Solo verte reir
                     Em   Bm
Es lo que me hace feliz, 
C*
Mi alma

         G 
Y es verdad 
                   D
Que una mirada distinta
                    Em   Bm
O algún gesto más frío 
C*
Se clava
       G
En mi pecho
                 D
Daga del desconcierto

Pero amor
  Em   Bm    C*
Ahí está la magia


  C
Ahora que te veo, niña
 D
Ya te echo de menos
       G          D    
No imagino mis heridas
          Em       
Si algún día te vas lejos
     C  C*
Querría
    D   D*
Por esto



G                    D
 Que si preguntan por mí
Em                 Bm
 No les digas donde fuí
        C
 Que tu alma sea fuerte
           D
 Y cuando mires hacia el frente
        G           D            Em
 No recuerdes todo lo que no te dí
            C           
 Y es que quedan tantas cosas
         D
 Por contarte y que me cuentes
         G          D           Em
 Tantos ratos y pasiones por vivir
       C   C*
 A tu lado
         D   D*
 Oh, mi vida
       G
 A tu lado


Solo:
E-||------------10---8-7-5/7-5---5-7-8-5/7---------------------
B-||--------5-7-----------------------------5--7-8-8/10--------
G-||--4-5-7---------------------------------------------7-7----
D-||-----------------------------------------------------------
A-||-----------------------------------------------------------
E-||-----------------------------------------------------------

E-||-------7/8-8-8-8--7-5---------0-2-2/3-2-5--3---
B-||----------------------3---3-3------------------
G-||--7-7--8/9-9-9-9--7-5-------------------5--4---
D-||----------------------4------------------------
A-||-----------------------------------------------
E-||-----------------------------------------------

E-||--3-2-0--------------3-2-0/2-2---------------2-3-10-8-7--------
B-||----------3-3/5-5------------------------3-5------------10-8---
G-||--4-2-0--------------4-2-0/2-2-------4-5-----------------------
D-||----------4-4/5-5----------------5-7---------------------------
A-||---------------------------------------------------------------
E-||---------------------------------------------------------------


      G
Y ojalá
             D         Em    Bm
Que nuestros ojos sí brillen
C*
Mañana
          G                      D 
Y que tu voz siga pidiéndome a gritos amor
    Em      G    C*
A gritos de esperanza

  C
Ahora que te tengo
        D
No pienso perder el tiempo
       G              D            
Ni perderme por mi absurdo ego
   Em
Ni un solo momento
      C   C*
Se esfuma
     D   D*   
El miedo

G                    D
 Y si preguntan por mí
Em                   Bm
 No les digas donde fuí
        C
 Que tu alma sea fuerte
           D
 Y cuando mires hacia el frente
        G           D            Em
 No recuerdes todo lo que no te dí
         C
 Que tu luz brille por siempre
         D
 Porque tu te lo mereces
       G             D         Em
 Y perdona si algún día pretendí
          C    C*
 Que no fueras
         D    D*
 Oh, tu misma

G                    D
 Y si preguntan por tí
Em                 Bm
 Solo diré que te vi
          C
 En mis sueños una noche
          D
 Y sólo sueño desde entonces
       G          D           Em
 Para verme cada día junto a tí
            C
 Y es que quedan tantas cosas
         D
 Por contarte y que me cuentes
         G         D            Em
 Tantos ratos y pasiones por vivir
       C   C*
 A tu lado
         D   D*
 Oh, mi vida
             G    D   Em Bm C*   G
 A tu lado





Comments


Popular Ubago Alex tabs & chords
Lo Mas Grande Chords
Me Muero Por Conocerte Chords
Que Pides Tu Chords
Sigo Aqui Chords
Sin Miedo A Nada Chords


Song lyrics



↑ Back to top | Tablatures and chords are parodies/interpretations of the original songs. You may use it for private study, scholarship, research or language learning purposes only
© 2014 AZChords.com Contact us | Privacy policy | DMCA | Add/correct tabs | Request tabs | Top 50 tabs