» » »

Who You Fighting For Bass tabs (ver.1)

Artists:  A B C D E F G H I J K L M N O P Q R S T U V W X Y Z # 

Who You Fighting For Bass tabs (ver.1)

Ub40
Rating:
5/5 (1 vote)

Tabs too difficult? Try these video lessons and learn fast.
                Title - Who you fighting for
Artist - UB40

  intro;
  G|---------------------------------------------------|
  D|---------------------------------------------------|
  A|---7-7-5-7--7---5-5-5-5-5--7-7-5-7--7---5-5-5-5-5--|
  E|--------------7-----------------------7------------|

  G|------------------------------------------------------|
  D|------------------------------------------------------|
  A|---7-7-5-7--7---5-5-5-5-5--7-7-5-7--7---5-5-5-7\12/5--|
  E|--------------7-----------------------7---------------|


  verse;x4
  G|---------------------------------------------------|
  D|---------------------------------------------------|
  A|---7-7-5-7--7---5-5-5-5-5--7-7-5-7--7---5-5-5-5-5--|
  E|--------------7-----------------------7------------|

   Queen and country, freedom cry....

  chorus;x4
  G|---------------------------|
  D|---------------------------|
  A|---------------------------|
  E|---5-5-3-5--5-0-3-3-3-3-3--|

   You do the shooting, they do the looting....


   Song Structure-intro  x1  
                  verse  x4
                  chorus x4
                  repeat verse,chorus till end.

                                   
            
Tabs too difficult? Try these video lessons and learn fast.




comments powered by Disqus
↑ Back to top | Tablatures and chords are parodies/interpretations of the original songs. You may use it for private study, scholarship, research or language learning purposes only