» » »

Watchdogs Bass tabs (ver.1)

Artists:  A B C D E F G H I J K L M N O P Q R S T U V W X Y Z # 

Watchdogs Bass tabs (ver.1)

Ub40
Rating:
0/5 (0 votes)

Hard to play? Try these video lessons and learn fast.
                    Title -Watchdogs
    Artist -UB40
    Album -Rat in the kitchen

   verse riff;
  G|------------------------------------------------------------------------|
  D|------------------------------------------------------------------------|
  A|---7---7--7-----------5-7---7---7-7-------------------------------------|
  E|-5---5------7-7-7-7-7-----5---5-----7-7-7-7-7-5-7-----------------------|
                        8 times incl. intro
    chorus;
  G|------------------------------------------------------------------------|
  D|-----7-7-----7---------------------------7-7-----7----------------------|
  A|-5-5-----5-5---5-----7-7-7-7-----7---5-5-----5-5---5-----7-7-7-7----7---|
  E|-----------------5-5---------5-5---5-----------------5-5---------5-5--7-|

  G|------------------------------------------------------------------------|
  D|-----7-7-----7---------------------------7-7-----7----------------------|
  A|-5-5-----5-5---5-----7-7-7-7-----7---5-5-----5-5---5-----7-7-7-7----7---|
  E|-----------------5-5---------5-5---5-----------------5-5---------5-5--7-|

  G|------------------------------------------------------------------------|
  D|------------------------------------------------------------------------|
  A|-7-7-7-5---5-7-7-5------------------------------------------------------|
  E|---------7---------7----------------------------------------------------|

   song structure;verse x8
                  chorus x1
                  verse x4
                  chorus x1
                  verse x4
                  chorus x1
                  verse x4
                  chorus x1
                  verse x4
                  chorus x1
                  verse x2
                  chorus to fade
            
Hard to play? Try these video lessons and learn fast. | Correct




comments powered by Disqus
↑ Back to top | Tablatures and chords are parodies/interpretations of the original songs. You may use it for private study, scholarship, research or language learning purposes only