» » »

Ub40, War Poem Bass tabs (ver.1)

Artists:  A B C D E F G H I J K L M N O P Q R S T U V W X Y Z # 

War Poem Bass tabs (ver.1)

Ub40 Tabs
Rating:
5/5 (1 vote)
War Poem lessons Tabs too difficult? Try these video lessons and learn fast
                Artist - UB40
Title - War Poem
Album - Who You Fighting For
Bass Tab
  
             
verse  
G|------------------------4-(7)-------------------------------|
D|---------4-(7)------4-7----------------4-(7)----------4-(7)-|
A|-----4-7--------5--5---------------4-7------------4-7-------|
E|-5--5--------------------------5--5-----------5--5----------|

G|------------------------4-(7)-------------------------------|
D|---------4-(7)------4-7----------------4-(7)----------4-(7)-|
A|-----4-7--------5--5---------------4-7------------4-7-------|
E|-5--5--------------------------5--5-----------5--5----------|


chorus
G|---------6-(9)----------4-(7)----------6-(9)----------4-(7)-|
D|-----6-9------------4-7------------6-9------------4-7-------|
A|-7--7-----------5--5-----------7--7-----------5--5----------|
E|------------------------------------------------------------|

G|---------6-(9)----------4-(7)----------6-(9)----------4-(7)-|
D|-----6-9------------4-7------------6-9------------4-7-------|
A|-7--7-----------5--5-----------7--7-----------5--5----------|
E|------------------------------------------------------------|

repeat verse/chorus thru out
            

comments powered by Disqus
↑ Back to top | Ub40 Bass for War Poem. Lyrics for acoustic guitar and electric guitar. Tablatures and chords are parodies/interpretations of the original songs. You may use it for private study, scholarship, research or language learning purposes only