» » »

Tyler Bass tabs (ver.1)

Artists:  A B C D E F G H I J K L M N O P Q R S T U V W X Y Z # 

Tyler Bass tabs (ver.1)

Ub40
Rating:
5/5 (1 vote)

Hard to play? Try these video lessons and learn fast.
                 Title - Tyler
 Artist - UB40
 Album - Signing Off


   intro
G|-------------------------------------------|
D|--7-77-------------------------------------|
A|-------5555------7------555-55-77-7----77--|
E|------------55-5---5--3-------------55-----|


G|---------------------------------------------|
D|----7-77777----------------------------------|
A|-----------------77------55555---------------|
E|--5---------55-5----55-3-------(5)--3-5-3-5--|


G|------------------------------------------|
D|--77-7---7--------------------------------|
A|-------5---55-----7-----555555-777----77--|
E|--------------555---5-3------------55-----|


G|-----------------------------------------|
D|----777777-------------------------------|
A|--5------------77------55555-7-----------|
E|-----------555----55-3---------(5)--3-5--|


   main verse/chorus riff
G|------------------------------------------|
D|--7-77------------------------------------|
A|-------5555-----77-------55555-777----77--|
E|------------5-5----55-33-----------55-----|


G|---------------------------------------|
D|-----77777-----------------------------|
A|--55-----------77------55555-----------|
E|-----------555----55-3-------(5)-3535--|

    repeat with improv.until instr.break


   during instr.break
G|-------------------------------------|
D|--7--------5--------7--------5-------|
A|----7--------5--------7--------5-----|
E|------5--5-----3--------5555-----33--|

    repeat this thro'out break then
    return to main riff and repeat til end
            
Hard to play? Try these video lessons and learn fast. | Correct




comments powered by Disqus
↑ Back to top | Tablatures and chords are parodies/interpretations of the original songs. You may use it for private study, scholarship, research or language learning purposes only