» » »

The Pillow Bass tabs (ver.1)

Artists:  A B C D E F G H I J K L M N O P Q R S T U V W X Y Z # 

The Pillow Bass tabs (ver.1)

Ub40
Rating:
5/5 (1 vote)

Hard to play? Try these video lessons and learn fast.
                Title;The pillow
Artist;UB40
Album;Geffery Morgan


verse riff (repeat)
G|----------------------------------|
D|----------------------------------|
A|----------------------------8h10--|
E|--88-8---88-8---88-8---88-8-------|

chorus riff (repeat)
G|----------------------------------|
D|----------------------------8h10--|
A|--88-8---88-8---88-8---88-8-------|
E|----------------------------------|


fill from chorus back to verse
G|------------810-8--|
D|-------10810-------|
A|-88-8--------------|
E|-------------------|
            
Hard to play? Try these video lessons and learn fast. | Correct




comments powered by Disqus
↑ Back to top | Tablatures and chords are parodies/interpretations of the original songs. You may use it for private study, scholarship, research or language learning purposes only