» » »

Sins Of The Fathers Bass tabs (ver.1)

Artists:  A B C D E F G H I J K L M N O P Q R S T U V W X Y Z # 

Sins Of The Fathers Bass tabs (ver.1)

Ub40
Rating:
5/5 (1 vote)

Hard to play? Try these video lessons and learn fast.
                    Title - Sins Of The Fathers
    Artist - UB40
    Album - Who You Fighting For

     intro;
  G|------------------------------------------|
  D|------------------------------7-------7---|
  A|---------5-5-----5-----3-3-3-----5-5------|
  E|--3-3-3-------3-----3---------------------|

  G|------------------------------------------|
  D|------------------------------7-------7---|
  A|---------5-5-----5-----3-3-3-----5-5------|
  E|--3-3-3-------3-----3---------------------|


     verse/chorus; (repeat thro'out)
  G|------------------------------------------|
  D|------------------------------5--------5--|
  A|---------5-5-----5-----3-3-3------3-3-----|
  E|--3-3-3-------3-----3---------------------|

  G|------------------------------------------|
  D|---------7-7-----7-------------5----------|
  A|--5-5-5-------5-----5-\-3-3-3-----------5-|
  E|----------------------------------3-3-----|

     end;
  G|------------------------------------------|
  D|------------------------------7-------7---|
  A|---------5-5-----5-----3-3-3-----5-5------|
  E|--3-3-3-------3-----3---------------------|

  G|------------------------------------------|
  D|------------------------------7-------7---|
  A|---------5-5-----5-----3-3-3-----5-5------|
  E|--3-3-3-------3-----3---------------------|

  G|------------------------|
  D|------------------------|
  A|---------5-5-----5------|
  E|--3-3-3-------3-----3---|
            
Hard to play? Try these video lessons and learn fast. | Correct




comments powered by Disqus
↑ Back to top | Tablatures and chords are parodies/interpretations of the original songs. You may use it for private study, scholarship, research or language learning purposes only