» » »

Madam Medusa Bass tabs (ver.1)

Artists:  A B C D E F G H I J K L M N O P Q R S T U V W X Y Z # 

Madam Medusa Bass tabs (ver.1)

Ub40
Rating:
5/5 (1 vote)

Hard to play? Try these video lessons and learn fast.
                Title;Madam Medusa
Artist;UB40
Album;Signing Off

Alternate and vary riffs

riff 1
G|---------------------------------------|
D|--------------666-4-------------6-6-4--|
A|--4h6-66-----------4h6-666-------------|
E|--------6-664-------------6-664--------|

riff 2
G|------------------------------6-8-6---6-8--|
D|------6h8--86-666-4----6h8--8-------8------|
A|--4h6--------------4h6---------------------|
E|-------------------------------------------|

riff 3
G|------------------------------------|
D|-----------------------------6------|
A|--6-666------------4h6-66-----------|
E|-------6-666-4-4-4-------6-66--4-4--|

riff 4
G|-----------------------------------6-8-6----|
D|--------6h86h8-6-666-4------6h86h8-------8--|
A|--4h64h6--------------4h64h6----------------|
E|--------------------------------------------|

riff 5
G|-----------------------------------|
D|-------------6464-----------6-6----|
A|--6---6-----------6---6------------|
E|----6---6--4--------6---6-44----4--|
            
Hard to play? Try these video lessons and learn fast. | Correct




comments powered by Disqus
↑ Back to top | Tablatures and chords are parodies/interpretations of the original songs. You may use it for private study, scholarship, research or language learning purposes only