» » »

Ub40, Lost And Found Bass tabs (ver.1)

Artists:  A B C D E F G H I J K L M N O P Q R S T U V W X Y Z # 

Lost And Found Bass tabs (ver.1)

Ub40 Tabs
 Rating:
4.2/5 (5 votes)
Lost And Found lessons Tabs too difficult? Try these video lessons and learn fast
1
                Title - Lost and Found
Artist - UB40 
Album - Twentyfourseven
  

intro  
G|-----------6---------------6--------------------------------------|
D|------------6---------------6--------------4---------------4------|
A|-44-44-44-4--4-2-44-44-44-4--4-2------------4---------------4-----|
E|---------------------------------22-22-22-2--2-0022-22-22-2--2-00-|


verse X 2
G|-----------6------------------------------------------------------|
D|------------6------------------------------4---------------4------|
A|-44-44-44-4--4-2-44-44-444------------------4---------------4-----|
E|---------------------------7-5-4-22-22-22-2--2-0022-22-22-2--2-00-|


chorus (as intro)
G|-----------6---------------6--------------------------------------|
D|------------6---------------6--------------4---------------4------|
A|-44-44-44-4--4-2-44-44-44-4--4-2------------4---------------4-----|
E|---------------------------------22-22-22-2--2-0022-22-22-2--2-00-|


break
G|-----------6------------------------------------------------------|
D|------------6------------------------------4---------------4------|
A|-44-44-44-4--4-2-44-44-444------------------4---------------4-----|
E|---------------------------7-5-4-22-22-22-2--2-0022-22-22-2--2-00-|

G|-----------6--------------4-6-4--6----------------------------------|
D|------------6------------6--------------------4---------------4-----|
A|-44-44-44-4--4-2-44-44-44--------------------4---------------4------|
E|-----------------------------------22-22-22-2--2-0022-22-22-2--2-00-|


chorus variation (octave)
G|-----------6---------------6---------------11----------------11------|
D|------------6---------------6----------------11----------------11----|
A|-44-44-44-4--4-2-44-44-44-4--4-2-99-99-99-9----9-7-99-99-99-9----9-7-|
E|---------------------------------------------------------------------|

Repeat verse chorus and play out on chorus with improv and fills

fill
G|-----------6---------------6---------------11-------------------------|
D|------------6---------------6----------------11--------------------11-|
A|-44-44-44-4--4-2-44-44-44-4--4-2-99-99-99-9----9-7-9--9,11---12-------|
E|----------------------------------------------------------------------|
            
Submit corrections

comments powered by Disqus
↑ Back to top | Ub40 Bass for Lost And Found. Lyrics for acoustic guitar and electric guitar. 1 Tablatures and chords are parodies/interpretations of the original songs. You may use it for private study, scholarship, research or language learning purposes only