» » »

I Would Do For You Bass tabs (ver.1)

Artists:  A B C D E F G H I J K L M N O P Q R S T U V W X Y Z # 

I Would Do For You Bass tabs (ver.1)

Ub40
Rating:
5/5 (1 vote)

Hard to play? Try these video lessons and learn fast.
                    Title - I Would Do For You
    Artist - UB40
    Album - 'UB40'

    main riff 1
  G|---------------------------|
  D|----66666-------66666------|
  A|--4-------6---4-------6-4--|
  E|------------4--------------|

         riff 2
  G|--------------6644---------|
  D|----66666----------66------|
  A|--4-------6-----------6-4--|
  E|------------4--------------|

         riff 3
  G|-------------------------|
  D|----66666-----4422442-4--|
  A|--4-------6--------------|
  E|------------4------------|

         riff 4
  G|-------------------------|
  D|----66666-----6644664-6--|
  A|--4-------6--------------|
  E|------------4------------|

      order; riff
1,1,1,1,1,2,2,1,3,1,1,1,1,1,2,1,3,1,4,2,1,3,1,4,3,1,4,2,etc...
basically the same riff all the way thro with improv.during the chorus.
            
Hard to play? Try these video lessons and learn fast. | Correct




comments powered by Disqus
↑ Back to top | Tablatures and chords are parodies/interpretations of the original songs. You may use it for private study, scholarship, research or language learning purposes only