» » »

I Won't Close My Eyes Bass tabs (ver.1)

Artists:  A B C D E F G H I J K L M N O P Q R S T U V W X Y Z # 

I Won't Close My Eyes Bass tabs (ver.1)

Ub40
Rating:
0/5 (0 votes)

Hard to play? Try these video lessons and learn fast.
                Title- I Won't Close My Eyes
Artist- UB40
Album- UB44

main riff, repeat with variations
G|-----------------------------------|
D|--5----------5--------3-----3------|
A|---5-------55-5--------3-----3-----|
E|-----3(3)------3(3)-----1(1)--1(1)-|

G|----------------------------------------|
D|--5-------5------------\3--------3------|
A|---5----55-5-----5-3-5---3-----33-3-----|
E|----3(3)----3(3)----------1(1)-----1(1)-|

G|-------------------------------------------|
D|--5-------5------5-3-5-3-5\3--------3------|
A|---5----55-5----------------3-----33-3-----|
E|----3(3)----3(3)-------------1(1)-----1(1)-|
            
Hard to play? Try these video lessons and learn fast. | Correct




comments powered by Disqus
↑ Back to top | Tablatures and chords are parodies/interpretations of the original songs. You may use it for private study, scholarship, research or language learning purposes only