» » »

I'll Be On My Way Bass tabs (ver.1)

Artists:  A B C D E F G H I J K L M N O P Q R S T U V W X Y Z # 

I'll Be On My Way Bass tabs (ver.1)

Ub40
Rating:
5/5 (1 vote)

Hard to play? Try these video lessons and learn fast.
                Title : I'll Be On My Way
Artist : UB40
Album : Who You Fighting for


verse;
G|---------------------------------------------------------------------|
D|---------------------------------------------------------------------|
A|----------7--7-7--5--------5--5-5--7--------7--7-7--5-5--7-5---------|
E|---5--5-5-----------5--5-5-----------5--5-5------------------5--5-5--|

chorus;
G|-------------------------------------------------------|
D|-------------------------------------------------------|
A|----------------------------------------------7--7-7-5-|
E|---7--7-7--4--4-4-5--7--7-7--4--4-4-7--5--5-5----------|

end;
G|-------------------------------------------------------------------------|
D|-------------------------------------------------------------------------|
A|----------7--7-7--5-5--7-5---------------7--7-7--5-5--7-5----------------|
E|---5--5-5------------------5--5-5--5--5-5-----------------5--5-5--5--5-5-|

G|----------------------|
D|----------------------|
A|---7--7-7--5-5-7-5----|
E|-------------------5--|


Song Structure;
verse;  x3
chorus; x1
verse;  x2
chorus; x1
verse;  x2
end     x1
            
Hard to play? Try these video lessons and learn fast. | Correct




comments powered by Disqus
↑ Back to top | Tablatures and chords are parodies/interpretations of the original songs. You may use it for private study, scholarship, research or language learning purposes only