» » »

I Got You Babe Bass tabs (ver.1)

Artists:  A B C D E F G H I J K L M N O P Q R S T U V W X Y Z # 

I Got You Babe Bass tabs (ver.1)

Ub40
Rating:
5/5 (1 vote)

Hard to play? Try these video lessons and learn fast.
                Title - I Got You Babe
Artist - Ub40/Chrissie Hinde
Album - Bagariddim


TUNING=HALF STEP DOWN

note; the live version of the song in the video is played a half step up

 
intro/first verse/chorus riff E
F#|------------------------------------------------------------------|
C#|-------------------------------------------------------53---------|
G#|------31---1111-31----31---1111-31-----31---1111-5-3-3---3--1111--|
D#|--1-1---1---------1-1---1---------1-1----1------------------------|
 repeat until...
 
 
bridge part 1  
Ali- 'i got flowers...'
F#|----------------------5--------------------------5---------|
C#|--------5-----------5----------------5-------------5-------|
G#|------5---------3-3-----3--3-------5---------3-3-----3--3--|
D#|--3-3-----3--3----------------3--3-----3--3----------------|

 
bridge part 2  
Chrissie- 'and when i'm sad...'
F#|-------------------------------------------------------------|
C#|------3-------------3------------------3---------------------|
G#|--------3-------------3-1------------3---------3-3-1---4--4--|
D#|--1-1-----1--1--1-1-------1--1---1-1-----1--1--------3-------|
 
 
 
verse/chorus riff (half step up from before)  
F#|-----------------------------------------------------------------|
C#|------------------------------------------------------64---------|
G#|------42---2222-42----42---2222-42----42---2222-6-4-4---4--2222--|
D#|--2-2---2---------2-2---2---------2-2---2------------------------| 
 
repeat this to the end
F#|--------------------------------|
C#|--------------------------------|
G#|------42---2222-42----42--4444--|
D#|--2-2---2---------2-2---2-------| 
 
            
Hard to play? Try these video lessons and learn fast. | Correct




comments powered by Disqus
↑ Back to top | Tablatures and chords are parodies/interpretations of the original songs. You may use it for private study, scholarship, research or language learning purposes only