» » »

Ub40, Food For Thought Bass tabs (ver.1)

Artists:  A B C D E F G H I J K L M N O P Q R S T U V W X Y Z # 

Food For Thought Bass tabs (ver.1)

Ub40 Tabs
Rating:
0/5 (0 votes)
Food For Thought lessons Tabs too difficult? Try these video lessons and learn fast
                Artist - UB40
Title - Food for Thought
Album - Signing off
Bass Tab


Basically the same riff thru out the song with variations
-& improv.
Here are a few of the variations

riff 1    h=hammeron to note
G|---------------------------------------|
D|--7--7-----------5h7----------7-5-4----|
A|------7777---5h7---------7777-------7--|
E|---------------------4--4--------------|

G|-----------------------------------------|
D|----------------------------5-3-2--------|
A|------5555-----5-------5555-------5-3-2--|
E|--3--3-----3-3---3-2--2------------------|


riff 2    p=pull off to note
G|------------------------------------------|
D|--7--7-----------5h7-------------7p5------|
A|------7777---5h7---------7777--------7p5--|
E|---------------------4--4-----------------|

G|------------------------------------------------|
D|------------------3h5--------------5-3-2--------|
A|------5555----3h5-------------5555-------5-3-2--|
E|--3--3----------------2--2----------------------|


riff 3
G|------------------------------------------|
D|--7--7-----------5h7-------------7p5------|
A|------7777---5h7---------7777--------7p5--|
E|---------------------4--4-----------------|

G|-----------------------------------------------|
D|------------------3h5--------------5--3--2-----|
A|------5555----3h5-------------5555----------5--|
E|--3--3----------------2--2---------------------|


riff 4
G|----------------------------------------------|
D|--7--7----------5h7-----5h7----------7-5-4----|
A|------7777--5h7-----5h7---------7777-------7--|
E|----------------------------4--4--------------|

G|------------------------------------------|
D|-----------------------------5--3--2------|
A|------5555-----5---------5555----------5--|
E|--3--3-------3---5---2--2-----------------|


riff 5
G|--------------------------------------|
D|--7--7----------5h7----------7-5-4----|
A|------7777--5h7---------7777-------7--|
E|-------------------4--4---------------|

G|----------------------------------------------|
D|--------------3h5---3h5----------5-3-2--------|
A|------5555-3h5---3h5---------5555------5-3-2--|
E|--3--3------------------2--2------------------|


fading riff
G|------------------------------------------------|
D|--7--7----------5h7-----5h7----------75---75----|
A|------7777--5h7-----5h7---------7777---97---97--|
E|----------------------------4--4----------------|...
            
Submit corrections

comments powered by Disqus
↑ Back to top | Ub40 Bass for Food For Thought. Lyrics for acoustic guitar and electric guitar. Tablatures and chords are parodies/interpretations of the original songs. You may use it for private study, scholarship, research or language learning purposes only