» » »

Don't Let It Pass You By Bass tabs (ver.1)

Artists:  A B C D E F G H I J K L M N O P Q R S T U V W X Y Z # 

Don't Let It Pass You By Bass tabs (ver.1)

Ub40
Rating:
5/5 (1 vote)

Hard to play? Try these video lessons and learn fast.
                    Title -  Don't Let it Pass You By
    Artist - UB40
    Album - Present Arms

      intro;
  G|------------------------------------|
  D|------------------------------------|
  A|-----------6-5---------------6-5----|
  E|--8--8-8--------6---8--8-8-------6--|

  G|---------------------------------------------|
  D|---------------------------------------------|
  A|-----------6-5---------------6-5--8h10-8h10--|
  E|--8--8-8--------6---8--8-8-------------------|


     it's basically the same riff thru out.
     here are some of the variations of the riff
      
  G|----------------------------------------|
  D|----------------------------------------|
  A|------10--10----8--8h10-10,10----6-5----|
  E|--888-------6-6--------------8-------6--|

  G|----------------------------------------------|
  D|----------------------------------------------|
  A|-------10,10--10---8--8h10-10-----6-5-8,10-8--|
  E|--6h8-----------666-----------8---------------|

  G|----------------------------------------|
  D|----------------------------------------|
  A|-----10,10--10----8--8h10-10,10---6-5---|
  E|--8-----------6-6--------------8-----6--|

  G|-------------------------------------------------------|
  D|------------------------------------------8,8,10,8-----|
  A|------10,10--10-----8--8h10-10,10----10,10----------8--|
  E|--88-----------6-6---------------8---------------------|

  G|------------------------------------------|
  D|------------------------------------------|
  A|-------10,10--10---8--8h10-10-------------|
  E|--6h8-----------666-----------8---6-3-63--|

  G|---------------------------------------------|
  D|---------------------------------------------|
  A|-------10,10--10---8--8h10-10-----6655-8-10--|
  E|--6h8-----------6-6-----------8--------------|

  G|---------------------------------------------|
  D|---------------------------------------------|
  A|-------10,10--10---8--8h10,10,10-----6655-5--|
  E|--8-8-----------666--------------8-------6---|

  for the extended version play the intro again before Astro's toasting
            
Hard to play? Try these video lessons and learn fast. | Correct




comments powered by Disqus
↑ Back to top | Tablatures and chords are parodies/interpretations of the original songs. You may use it for private study, scholarship, research or language learning purposes only