» » »

Desert Sand Bass tabs (ver.1)

Artists:  A B C D E F G H I J K L M N O P Q R S T U V W X Y Z # 

Desert Sand Bass tabs (ver.1)

Ub40
Rating:
5/5 (1 vote)

Hard to play? Try these video lessons and learn fast.
                Title-Desert Sand
Artist-UB40	
Album-Promises and Lies

 intro/break
G|------------------------------------------------------|
D|-3--------------3-----------3-----------3-----------3-|
A|--------01-3--3--------01-3--------01-3--------01-3---|
E|---1---1----------1---1-------1---1-------1---1-------|

G|------------------------------------------------------|
D|-3--------------3-----------3-----------3-----------3-|
A|--------01-3--3--------01-3--------01-3--------01-3---|
E|---1---1----------1---1-------1---1-------1---1-------|

 verse;(repeat)
G|-----------------------------------------------------------|
D|-3--3---3-------3--3---3-------3--3---3------3--3---3------|
A|--3---3----------3---3----------3---3---------3---3--------|
E|---------1-1-1----------1-1-1----------1-1-1---------1-1-1-|
            
Hard to play? Try these video lessons and learn fast. | Correct




comments powered by Disqus
↑ Back to top | Tablatures and chords are parodies/interpretations of the original songs. You may use it for private study, scholarship, research or language learning purposes only