» » »

Ub40, Crying Over You Bass tabs (ver.1)

Artists:  A B C D E F G H I J K L M N O P Q R S T U V W X Y Z # 

Crying Over You Bass tabs (ver.1)

Ub40 Tabs
Rating:
5/5 (1 vote)
Crying Over You lessons Tabs too difficult? Try these video lessons and learn fast
                Title;crying over you
Artist;ub40
Album;labour of love III

chorus/verse
G|--------------------------------------------------------|
D|--------------------------------------------------------|
A|-33-3333--------5-5555--------3-3333--------5-5555------|
E|---------3--5--5-------3--5--3-------3--5--5-------3--5-|

bridge
G|--------------------------------------------------------
D|--3-3333--------3-3333----------------------------------
A|-3-------3--5--3-------3--5---3-3333--------3-3333------
E|-----------------------------3-------3--5--3-------3--5-

G|----------------------------------------------------------|
D|--3-3333--------3-3333----------------------55-5----------|
A|-3-------3--5--3-------3--5---5-5555-------7----88-877-75-|
E|-----------------------------5-------5--7-----------------|
return to chorus/verse riff
            

comments powered by Disqus
↑ Back to top | Ub40 Bass for Crying Over You. Lyrics for acoustic guitar and electric guitar. Tablatures and chords are parodies/interpretations of the original songs. You may use it for private study, scholarship, research or language learning purposes only