» » »

Wild Honey Tabs (ver.1)

Artists:  A B C D E F G H I J K L M N O P Q R S T U V W X Y Z # 

Wild Honey Tabs (ver.1)

U2
Rating:
0/5 (0 votes)
Tabs too difficult? Try these video lessons and learn fast.
                (c)2000



This is a simple song in G, but it has 4 guitars so it can get a little
confusing.  

(acoustic intro)

1---------------------------------------------------------
2---12----12p10----12----12p10----12----12/13----x----10--
3---------------------------------------------------------
4---12----12-------12----12-------12----12-------x----12--
5---------------------------------------------------------
6---------------------------------------------------------

(electric intro)

1---------------------------------------------
2---------------------------3-------3----1p0--
3-------------2--4--5-------------------------
4--------0------------------------------------
5---------------------------------------------
6---3-----------------------------------------

(verse)

 G       C

(lead improvises over G & C chords)
1-----------------3-----------------------------------------------
2-------------3-------3-------------------------------1---1p0-----
3---4p2---4---------------0------------------------------------0--
4------------------------------------------------2----------------
5-------------------------------------------3---------------------
6-----------------------------------------------------------------

(chorus)

Em     C     G     Bm7

(chorus lead)
1----------------------------------------------------------------------
2-----------12---10---10---12------------------12---10---10---12---12--
3---9---------------------------------7----/9--------------------------
4----------------------------------------------------------------------
5----------------------------------------------------------------------
6----------------------------------------------------------------------

(bridge)

Em     C     Am     C






WILD HONEY

----------
U2 - All That You Can't Lead Behind


G
In the days 

when we were swinging from the trees. 
         C
I was a monkey 
                        G
stealing honey from a swarm of bees 

I could taste

I could taste you even then 
              C                 G
And I would chase you down the wind 

Em        C                 G 
You could go there if you please 
      D
wild honey 
Em          C                 G
And if you go there, go with me 
      D
wild honey 

Did I know you? 
Did I know you even then?
Before the clocks kept time 
Before the world was made

You were shelter 
You were my shelter and my shade 

If you go there with me
wild honey
You can do just what you please
wild honey
Yeah, just blowing in the breeze
wild honey
 Em      C       G       D
Wild... wild... wild... 

I'm still standing, I'm still standing 
Where you left me
Are you still growing wild 
With everything tame around you? 

I send you flowers
good flowers for your hall 
I know your garden is full 
but is there sweetness at all? 

Em    C    Am    C
love me so... 

If you go there, go with me
wild honey 
Won't you take me, take me please
wild honey
Yeah, swinging through the trees, 
wild honey 
wild... wild... wild...


Try this for the INTRO if you prefer:



e----7----7--(p)5--(h)7-----7--(p)5--(h)7----7--(s)8--5--5-
b----3----3-----3-----3-----3-----3-----3----3-----3--3--3-
g----0----0-----0-----0-----0-----0-----0----0-----0--0--0-
d----------------------------------------------------------
a----------------------------------------------------------
e----------------------------------------------------------


If you strum with a steady 4 beat and just use your hammers and pull offs and slides to to the rest it sounds best. 

Allan
            
Tabs too difficult? Try these video lessons and learn fast.


comments powered by Disqus
↑ Back to top | Tablatures and chords are parodies/interpretations of the original songs. You may use it for private study, scholarship, research or language learning purposes only