» » »

U2, Where The Streets Have No Name Tabs (ver.1)

Artists:  A B C D E F G H I J K L M N O P Q R S T U V W X Y Z # 

Where The Streets Have No Name Tabs (ver.1)

U2 Tabs
 Rating:
4/5 (4 votes)
Where The Streets Have No Name lessons Tabs too difficult? Try these video lessons and learn fast
1
                WHERE THE STREETS HAVE NO NAME 

Music by U2 - Lyrics by Bono & The Edge

(LIVE VERSION FROM POPMART TOUR - 1997)



[Tune down your guitar 1/2 step - Use Delay Pedal.]

1-------10------------------10-
2----------10------------10----
3-------------12--11--12-------
4------------------------------
5------------------------------
6------------------------------
                                                       
1---10--10--10--10--10--10------10--10--10--10--10--10--10--10--10--10--10--10-
2---10--10--10--10--10--10------10--10--10--10--10--10--10--10--10--10--10--10-
3---12--12--12--12--12--12------12--11--12--12--11--12--12--11--12--12--11--12- 
4------------------------------------------------------------------------------
5------------------------------------------------------------------------------
6------------------------------------------------------------------------------

1---10--10--10--10--10--10--10--10--10--10--10--10--10--10--10--10--10--10--10-
2---10--10--10--10--10--10--10--10--10--10--10--10--10--10--10--10--10--10--10-
3---12--11--12--12--11--12--12--11--12--12--11--12--12--11--12--12--11--12--12- 
4------------------------------------------------------------------------------
5------------------------------------------------------------------------------
6------------------------------------------------------------------------------

1---10--10--10--10--10--10--10--10------12--12--12--12--12--12--12--12-
2---10--10--10--10--10--10--10--10------10--10--10--10--10--10--10--10-
3---12--12--12--12--12--12--12--12------12--12--11--12--12--11--12--12- 
4----------------------------------------------------------------------
5----------------------------------------------------------------------
6----------------------------------------------------------------------


1---x-x-x-x-x-x-x-x-x-x----2-2-2-------x-x-x-x-x-x-x-x-x---2---x-x-x-x-x-x-x---
2---x-x-x-x-x-x-x-x-x-x----3-3-3-------x-x-x-x-x-x-x-x-x---3---x-x-x-x-x-x-x---
3---x-x-x-x-x-x-x-x-x-x----2-2-2-------x-x-x-x-x-x-x-x-x---2---x-x-x-x-x-x-x---
4---x-x-x-x-x-x-x-x-x-x----0-0-0-------x-x-x-x-x-x-x-x-x---0---x-x-x-x-x-x-x---
5---x-x-x-x-x-x-x-x-x-x----0-0-0-------x-x-x-x-x-x-x-x-x---0---x-x-x-x-x-x-x---
6---x-x-x-x-x-x-x-x-x-x----------------x-x-x-x-x-x-x-x-x-------x-x-x-x-x-x-x---


I want to run   I want to hide I want to tear down the walls That hold me inside

1---x-x-x-x-x-x-x-x-x-x----2-2-2------0-0-0-0-0-0-0-
2---x-x-x-x-x-x-x-x-x-x----3-3-3------2-2-2-2-3-3-2-
3---x-x-x-x-x-x-x-x-x-x----4-4-4------2-2-2-2-2-2-2-
4---x-x-x-x-x-x-x-x-x-x----4-4-4------2-2-2-2-2-2-2-
5---x-x-x-x-x-x-x-x-x-x----2-2-2------0-0-0-0-0-0-0-
6---x-x-x-x-x-x-x-x-x-x----2-2-2--------------------

I want to reach out                into a new flame

1---10--10--10--10--10--10--10--10------12--12--12--12--12--12--12--12-
2---10--10--10--10--10--10--10--10------10--10--10--10--10--10--10--10-
3---12--12--12--12--12--12--12--12------12--12--11--12--12--11--12--12- 
4----------------------------------------------------------------------
5----------------------------------------------------------------------
6----------------------------------------------------------------------

Where the streets have no name

1---x-x-x-x-x-x-x-x-x-x---------0--------x-x-x-x-x-x-x-x-x---------0------x-x-x-
2---x-x-x-x-x-x-x-x-x-x------3----3------x-x-x-x-x-x-x-x-x------3----3----x-x-x-
3---x-x-x-x-x-x-x-x-x-x----2---2----2----x-x-x-x-x-x-x-x-x----2---2----2--x-x-x- 
4---x-x-x-x-x-x-x-x-x-x--0------------0--x-x-x-x-x-x-x-x-x--0-------------x-x-x-
5---x-x-x-x-x-x-x-x-x-x------------------x-x-x-x-x-x-x-x-x----------------x-x-x-
6---x-x-x-x-x-x-x-x-x-x------------------x-x-x-x-x-x-x-x-x----------------x-x-x-

I want to feel sunlight on my face               I see that dust cloud 
disappear...

1---x-x-x-x-x-x-x-x-x-x----------------------
2---x-x-x-x-x-x-x-x-x-x------3---3----3----3-
3---x-x-x-x-x-x-x-x-x-x----0---0----0----0--- 
4---x-x-x-x-x-x-x-x-x-x--4----4---4----4-----
5---x-x-x-x-x-x-x-x-x-x----------------------
6---x-x-x-x-x-x-x-x-x-x----------------------
       
        ...without a trace

1--2-2-2-2-2-2---0-0-0-0-0-0-0-
2--3-3-3-3-3-3---3-3-3-3-2-2-2-
3--4-4-4-4-4-4---2-2-2-2-2-2-2-
4--4-4-4-4-4-4---2-2-2-2-2-2-2-
5--2-2-2-2-2-2---0-0-0-0-0-0-0-
6--2-2-2-2-2-2-----------------

I want to take shelter into the rain

1---10--10--10--10--10--10--10--10------12--12--12--12--12--12--12--12-
2---10--10--10--10--10--10--10--10------10--10--10--10--10--10--10--10-
3---12--12--12--12--12--12--12--12------12--12--11--12--12--11--12--12- 
4----------------------------------------------------------------------
5----------------------------------------------------------------------
6----------------------------------------------------------------------

Where the streets have no name

1------------------------------------------------------------------
2---10--8--7---10--8--7----10--8--7--8--7--8----10--8--7--8--7--8-
3----7--7--7----7--7--7-----7--7--7--7--7--7-----7--7--7--7--7--7-
4------------------------------------------------------------------
5------------------------------------------------------------------
6------------------------------------------------------------------

Where the streets have no name
Where the streets have no name
We're still building
Then burning down love, burning down love

1----------------------------
2---10--8--7----10--8--7--10-
3----7--7--7-----7--7--7---9-
4----------------------------
5----------------------------
6----------------------------

And when I go there
I go there with you
It's all...

1---10--10--10--10--10--10--10--10--10--10--10--10--10--10--10--10--10--10--10-
2---10--10--10--10--10--10--10--10--10--10--10--10--10--10--10--10--10--10--10-
3---12--11--12--12--11--12--12--11--12--12--11--12--12--11--12--12--11--12--12- 
4------------------------------------------------------------------------------
5------------------------------------------------------------------------------
6------------------------------------------------------------------------------

...I can do

1--2---------------x-x-x-x-x-x-x-
2--3---------------x-x-x-x-x-x-x-
3--2---------------x-x-x-x-x-x-x-
4--0---------------x-x-x-x-x-x-x-
5--0---------------x-x-x-x-x-x-x-
6------------------x-x-x-x-x-x-x-

The cities a flood
And our love turns to rust
We're beaten...

1--2--
2--3--
3--2--
4--0--
5--0--
6-----

...and blown by the wind

1--3-3-3-3-3---2-2-2-2-2-2---0-0-0-0-0-0-0-
2--3-3-3-3-3---2-2-3-2-3-3---0-2-2-2-3-3-2-
3--4-4-4-4-4---4-4-4-4-4-4---0-2-2-2-2-2-2-
4--5-5-5-5-5---4-4-4-4-4-4---0-2-2-2-2-2-2-
5--5-5-5-5-5---2-2-2-2-2-2---0-0-0-0-0-0-0-
6--3-3-3-3-3---2-2-2-2-2-2-----------------

Trampled in dust
I'll show you a place
It's High... it's high

1---10--10--10--10--10--10--10--10------12--12--12--12--12--12--12--12-
2---10--10--10--10--10--10--10--10------10--10--10--10--10--10--10--10-
3---12--12--12--12--12--12--12--12------12--12--11--12--12--11--12--12- 
4----------------------------------------------------------------------
5----------------------------------------------------------------------
6----------------------------------------------------------------------

Where the streets have no name

1------------------------------------------------------------------
2---10--8--7---10--8--7----10--8--7--8--7--8----10--8--7--8--7--8-
3----7--7--7----7--7--7-----7--7--7--7--7--7-----7--7--7--7--7--7-
4------------------------------------------------------------------
5------------------------------------------------------------------
6------------------------------------------------------------------

Where the streets have no name
Where the streets have no name
We're still building
Then burning down love, burning down love

1----------------------------
2---10--8--7----10--8--7--10-
3----7--7--7-----7--7--7---9-
4----------------------------
5----------------------------
6----------------------------

And when I go there
I go there with you
It's all...

1--10/--x-x-x-x-x-x-x-x-x-x-x-x-x-
2--10/--x-x-x-x-x-x-x-x-x-x-x-x-x-
3--12/--x-x-x-x-x-x-x-x-x-x-x-x-x-
4-------x-x-x-x-x-x-x-x-x-x-x-x-x-
5-------x-x-x-x-x-x-x-x-x-x-x-x-x-
6-------x-x-x-x-x-x-x-x-x-x-x-x-x-

...I can do

1---10--10--10--10--10--10--10--10--10--10--10--10--10--10--10--10--10--10--10-
2---10--10--10--10--10--10--10--10--10--10--10--10--10--10--10--10--10--10--10-
3---12--11--12--12--11--12--12--11--12--12--11--12--12--11--12--12--11--12--12- 
4------------------------------------------------------------------------------
5------------------------------------------------------------------------------
6------------------------------------------------------------------------------

oh oh oh oh oh oh....

1---10--10--10--10--10--10--10--10--10--10--10--10--10--10--10--10--10--10--10-
2---10--10--10--10--10--10--10--10--10--10--10--10--10--10--10--10--10--10--10-
3---12--11--12--12--11--12--12--11--12--12--11--12--12--11--12--12--11--12--12- 
4------------------------------------------------------------------------------
5------------------------------------------------------------------------------
6------------------------------------------------------------------------------

Where the streets have no name
Where the streets have no name
Still building
Then burning down love
Burning down love
And when I go there
I go there with you
It's all...

1-------10------------------10-
2----------10------------10----
3-------------12--11--12------- x10
4------------------------------
5------------------------------
6------------------------------
     
      ...we can do

1--10-----10----10------10-----10-
2------10----10------10-----10----
3----12---12------11-----11-------
4---------------------------------
5---------------------------------
6---------------------------------

1---10--10--10--10-
2---10--10--10--10-
3---11--12--11--12-
4------------------
5------------------
6------------------
            
Submit corrections

comments powered by Disqus
↑ Back to top | U2 Tabs for Where The Streets Have No Name. Lyrics for acoustic guitar and electric guitar. 1 Tablatures and chords are parodies/interpretations of the original songs. You may use it for private study, scholarship, research or language learning purposes only